-------------------------------------------------------------------------------
			     Gimme That - Sloan
-------------------------------------------------------------------------------
Tabbed by: Mike Milligan
Email: [email protected]

Tuning: Standard Tuning: EADGBE
Heavy Distortion throughout

| /  slide up
|   slide down
| h  hammer-on
| p  pull-off
| ~  vibrato
| +  harmonic
| x  Mute note

Intro

e|---------------------------------------------------------------------------
B|--------------4-4----------------------------------------------------------
G|----6-6-------4-4----4-4--------------------------------------------------
D|----6-6-------2-2----4-4--------------------------------------------------
A|----4-4--------------2-2--------------------------------------------------
E|---------------------------------------------------------------------------


Riff 1 (On the 4th time the last set of power chords is not played)
e|---------------------------------------------------------------------------
B|-----------444---------666-------------------------------------------------
G|----666----444---444---666-------------------------------------------------
D|----666----222---444---444-------------------------------------------------
A|----444----------222-------------------------------------------------------
E|---------------------------------------------------------------------------


2nd Time
e|---------------------------------------------------------------------------
B|------------4x44----------6x66---------------------------------------------
G|----6x66----4x44---4x44---6x66---------------------------------------------
D|----6x66----2x22---4x44---4x44---------------------------------------------
A|----4x44-----------2x22----------------------------------------------------
E|---------------------------------------------------------------------------

3rd Time
e|---------------------------------------------------------------------------
B|-----------444---------666-------------------------------------------------
G|----666----444---444---666-------------------------------------------------
D|----666----222---444---444-------------------------------------------------
A|----444----------222-------------------------------------------------------
E|---------------------------------------------------------------------------
   You Gotta Give me that Give me That Now
   Oh I'm gonna show you How

Keep Repeating Riff 1 (Listen for Rhythm)

   I don't agree to that gree to that kind
   Oh I thought you wouldn't mind
   Oh you've gotta give me that
   Give me that Gimme that Yeah
   

Riff 2

e|---------------------------------------------------------------------------
B|---------------------------------------------------------------------------
G|---99999999----66666666----44444444-------------------------------------
D|---99999999----66666666----44444444---22222222--------------------------
A|---77777777----44444444----22222222---00000000--------------------------
E|---------------------------------------------------------------------------

Still I can't decide, cuz my hands are tied, I wouldn't wait and see, if it were
up to me, if it were up to me.

The play Intro
Then start again at Riff 1


Your falling into that into that trap
Oh your really such a sap
Better get used to it used to it cuz
Now is not that way it was

Oh better get used to it, Ohhhh better get used to it


Then play Riff 2 twice.
e|---------------------------------------------------------------------------
B|---------------------------------------------------------------------------
G|---99999999----66666666----44444444-------------------------------------
D|---99999999----66666666----44444444---22222222--------------------------
A|---77777777----44444444----22222222---00000000--------------------------
E|---------------------------------------------------------------------------

Still I can't decide, cuz my hands are tied, I wouldn't wait and see, if it were
up to me, if it were up to me.

Begin playing Riff 1 Again


So take your Nickel back Nickel Back i'm
Oh Gunning for a Dime
You got the Gist of it Gist of it Now
Oh your gonna feel my power


End off on Intro

If you have questions or suggestions, or know how the 2nd guitar plays the solo
at the end, email me. [email protected]
[email protected]==============


Текст, аккорды и табулатура для песни "Gimme That", исполняет "Sloan".
Используемые в песне аккорды можно найти в разделе Как брать аккорды. Аккорды для шестиструнной гитары. Другие песни можно найти на нашем сайте, воспользовавшись алфавитным указателем вверху страницы.


 
Ошибка в тексте? Выделите ошибку и нажмите Ctrl+Enter