Verse

(Part 1)
G------------------------------------
D------------------------------------
A---------3-3-3-------4-4-4-----4-4--
D---2-2-2-------3-3-3-------3-3------

(Part 2)
G------------------------------------
D------------------------------------
A---------8-8-8-------9-9-9-----9-9--
D---7-7-7-------8-8-8-------8-8------

Chorus
G------------------------------------
D------------------------------------
A---------4-4-4-------5-5-5----------
D---3-3-3-------4-4-4-------3-3-1-1--

Outro

(Part 1)
G------------------------------------
D------------------------------------
A---------3-3-3-------4-4-4-----4-4--
D---2-2-2-------3-3-3-------3-3------

(Part 2)
G---------------------------------------------------
D---------------------------------------------------
A------------15-15-15----------16-16-16-------16-16-
D---14-14-14----------15-15-15----------15-15-------

(Part 3)
G---------------------------------------------------
D------------14-14-14----------15-15-15-------15-15-
A---12-12-12----------13-13-13----------13-13-------
D---------------------------------------------------

Song Order:

Bass is silent through the Intro
Verse (play each part 4 times before moving on to the next.)
Chorus x4
Verse
Verse
Chorus
Solo
Ourto

Thanks for looking at this tab. I hope you like it because I made it up! No Sh1t!
It really isn't a Slipknot tab, but it was the only way I could get it posted on
the site. Sorry for the let-down of hopes of a new Slipknot album.
SLIPKNOT ROCKS!!!!!!!!!!!!!!!!!!


Текст, аккорды и табулатура для песни "Youre Worthless", исполняет "Slipknot".
Используемые в песне аккорды можно найти в разделе Как брать аккорды. Аккорды для шестиструнной гитары. Другие песни можно найти на нашем сайте, воспользовавшись алфавитным указателем вверху страницы.


 
Ошибка в тексте? Выделите ошибку и нажмите Ctrl+Enter