Scissors-Slipknot
Slipknot

*Tuning Note*

F# F# B E G# C#


Intro: Drums, then

Fig 1. x2

Am(add9)/E

e-8-----8-----8-----8-----8---8-------8-------8-----8-----8-------
b-0---0-0---0-0---0-0---0-0---0-0-0---0-0---0-0---0-0---0-0---0-0-
g-x---x-x---x-x---x-x---x-x---x-x-x---x-x---x-x---x-x---x-x---x-x-
d-9---9-9---9-9---9-9---9-9---9-9-9---9-9---9-9---9-9---9-9---9-9-
a-7---7-7---7-7---7-7---7-7---7-7-7---7-7---7-7---7-7---7-7---7-7-
a-----------------------------------------------------------------

Fig 1. x10

Gtr 2. x10
pm
e-----------------------------------------------------------------
b-----------------------------------------------------------------
g-----------------------------------------------------------------
d-----------------------------------------------------------------
a-----------------------------------------------------------------
a-0-0-0-0---0-0-0-0-0-0-0-0---0-0-0-0-0-0-0-0-0-0-0-0-0-0-0---0-0-

then
Gtr 1.

e-8---------------------------------------------------------------
b-0---------------------------------------------------------------
g-x---------------------------------------------------------------
d-9---------------------------------------------------------------
a-7---------------------------------------------------------------
a-----------------------------------------------------------------

Gtr 2.
pm
e-----------------------------------------------------------------
b-----------------------------------------------------------------
g-x-x-x-x-x-x-x-x-x-x-x-x-x-x-x-x-x-x-x-x-x-x-x-x-x-x-x-x-x-x-x-x-
d-----------------------------------------------------------------
a-----------------------------------------------------------------
a-----------------------------------------------------------------

Verse:
pm
e-----------------------------------------------------------------
b-----------------------------------------------------------------
g-4---x-x-x-x-x-x-x-x-x-x-x-x-x-x-x-x-x-x-x-x-x-x-x-x-x-x-x-x-x-x-
d-----------------------------------------------------------------
a-----------------------------------------------------------------
a-----------------------------------------------------------------

x2
e-----------------------------------------------------------------
b-----------------------------------------------------------------
g-x-x-x-x-x-x-x-x-x-x-x-x-x-x-x-x-x-x-x-x-x-x-x-x-x-x-x-x-x-x-x-x-
d-----------------------------------------------------------------
a-----------------------------------------------------------------
a-----------------------------------------------------------------

e-----------------------------------------------0-0-0-0-----------
b-------------------------------0-0-0-0-0-0-0-0-------------------
g-x-x-x-x-x-x-x-x-x-x-x-x-x-x-x-----------------------------------
d-----------------------------------------------------------------
a-----------------------------------------------------------------
a---------------------------------------------------------12-----

Pre Chorus: Fig 1 x4 with

Gtr 2.

e-----------------------------------------------------------------
b-----------------------------------------------------------------
g-----------------------------------------------------------------
d-----------------------------------------------------------------
a-0-1-----0------0-1-----0------0-1------0-----0-1----------0-----
a-0-1-----0------0-1-----0------0-1------0-----0-1----------0-----

Fig 3. x4

e-----------------------------------------------------------------
b-----------------------------------------------------------------
g-----------------------------------------------------------------
d-----------------------------------------------------------------
a-0-4-3-1-4-3-1-5---0-5---0-1--0-4-3-1-4-3-1-5---0-5---0-1--------
a-0-4-3-1-4-3-1-5---0-5---0-1--0-4-3-1-4-3-1-5---0-5---0-1--------

Chorus: Fig 3.

Interlude: Fig 1

then
e-----------------------------------------------------------------
b-12-12-12-12-12-12-12-12-12-12-12-12-12-12-12-12-12-12-12-12-12--
g-14-14b14b14b14b14b14b14b14b14-14-14-14-14b14b14b14b14b14b14b14--
d-----------------------------------------------------------------
a-----------------------------------------------------------------
a-----------------------------------------------------------------

Bridge: ( 1’s not elevens )

e-----------------------------------------------------------------
b-----------------------------------------------------------------
g-----------------------------------------------------------------
d-----------------------------------------------------------------
a-11-1-1-1-1--------11-1-1-1-1--------11-1-1-1-1--------11-1-1-1-1
a-11-1-1-1-1--------11-1-1-1-1--------11-1-1-1-1--------11-1-1-1-1

...Biding my time...

e-----------------------------------------------------------------
b-----------------------------------------------------------------
g-----------------------------------------------------------------
d-----------------------------------------------------------------
a-0-1---0-0---0-1---0-0--0-0---0-1---0-0---0-1---0-0--0-0---------
a-0-1---0-0---0-1---0-0--0-0---0-1---0-0---0-1---0-0--0-0---------


fuck, there’s too much sampling too add, sorry

trevor jones
[email protected]


Текст, аккорды и табулатура для песни "Scissors", исполняет "Slipknot".
Используемые в песне аккорды можно найти в разделе Как брать аккорды. Аккорды для шестиструнной гитары. Другие песни можно найти на нашем сайте, воспользовавшись алфавитным указателем вверху страницы.


Слушать онлайн Scissors


SlipknotScissors на Яндекс.Музыке


 
Ошибка в тексте? Выделите ошибку и нажмите Ctrl+Enter