People=Shit-Slipknot
Iowa

Drop B: 
B F# B E G# C#

pm open string
e------------------------------------------------
b------------------------------------------------
g------------------------------------------------
d------------------------------------------------
a-65-0-0-32-0-0-65-0-0-32-0-0--0--0--0--0----
d-65-0-0-32-0-0-65-0-0-32-0-0--0--0--0--0----

trem pick x8
e------------------------------------------------
b------------------------------------------------
g------------------------------------------------
d------------------------------------------------
a----------------2222-3333------2222-------------
d-0000-1111-0000-----------3333------------------

x8
e------------------------------------------------
b------------------------------------------------
g------------------------------------------------
d------------------------------------------------
a------------------------------------------------
d-0-1-1-0-h1~~0-1-1-0/5~~-0-1-1-0-h1~~0-1-1-0/5--

Fig 1. x4

e------------------------------------------------
b------------------------------------------------
g------------------------------------------------
d------------------------------------------------
a-0-1-1-0-h1--0-1-1-0/5--0-1-1-0-h1--0-1-1-0/5---
d-0-1-1-0-h1--0-1-1-0/5--0-1-1-0-h1--0-1-1-0/5---

Verse Riff A x4

e-----------------------------------------------------------
b-----------------------------------------------------------
g-----------------------------------------------------------
d-----------------------------------------------------------
a-----------------------------------------------------------
d-0-1-1-0-h1~~~-0-0-3-3~~~-0-0-1-1--0-0-4-3~--0-0-6-6-5-5---

Interlude:

trem pick
e-10------------11--------------10------------11------------
b----------------------12-11--------------------------------
g-----------------------------------------------------------
d-----------------------------------------------------------
a-----------------------------------------------------------
d-----------------------------------------------------------

gtr 1. Riff B

e-----------------------------------------------------------
b-----------------------------------------------------------
g-----------------------------------------------------------
d-----------------------------------------------------------
a--------------0--------------0--------------0--------------
d-0-0-1----4-4---1-1-1----4-4---0-0-1----4-4---1-1--1-------

Bridge:

e-----------------------------------------------------------
b-----------------------------------------------------------
g-----------------------------------------------------------
d-----------------------------------------------------------
a-0-1-1-0-h1------1-1-1-0--0-0-0-1--0-0-0-0--0-0-0--5-------
d-0-1-1-0-h1------1-1-1-0--0-0-0-1--0-0-0-0--0-0-0--5-------

e-----------------------------------------------------------
b-----------------------------------------------------------
g-----------------------------------------------------------
d-----------------------------------------------------------
a-0-1-1-0-h1------1-1-1-0--1-1-1-0--0-0-0-1---------x------
d-0-1-1-0-h1------1-1-1-0--1-1-1-0--0-0-0-1---------x------

Chorus:

e-----------------------------------------------------------------
b-----------------------------------------------------------------
g-----------------------------------------------------------------
d-----------------------------------------------------------------
a-7-0-81-1-4-4-7-7-0-81-1-4-4-7-7-0-81-1-4-4-7-7-0-81-1-4-4-7-
d-7-0-81-1-4-4-7-7-0-81-1-4-4-7-7-0-81-1-4-4-7-7-0-81-1-4-4-7-

Interlude:

e-----------------------------------------------------------------
b-----------------------------------------------------------------
g-----------------------------------------------------------------
d-----------------------------------------------------------------
a-0-0--0-0--0-0--0-0-1-1--1--0-0--0-0--0-0--0-0-1-1--1------------
d-0-0--0-0--0-0--0-0-1-1--1--0-0--0-0--0-0--0-0-1-1--1------------

x4
e-----------------------------------------------------------------
b-----------------------------------------------------------------
g-----------------------------------------------------------------
d-----------------------------------------------------------------
a-1-1--1-1--1-1--2-2--1-1--1-1--2-2--4-4--------------------------
d-1-1--1-1--1-1--2-2--1-1--1-1--2-2--4-4--------------------------

gtr 1.

e-----------------------------------------------------------------
b-----------------------------------------------------------------
g-----------------------------------------------------------------
d-----------------------------------------------------------------
a-----1-1-----1-1-----1-1-----2-2-----1-1-----1-1-----2-2-----4-4-
d-----1-1-----1-1-----1-1-----2-2-----1-1-----1-1-----2-2-----4-4-

gtr 2.

e-----------------------------------------------------------------
b-----------------------------------------------------------------
g-----------------------------------------------------------------
d-----------------------------------------------------------------
a-1-1-----1-1-----1-1-----2-2-----1-1-----1-1-----2-2-----4-4-----
d-1-1-----1-1-----1-1-----2-2-----1-1-----1-1-----2-2-----4-4-----

Interlude:

e-----------------------------------------------------------------
b-----------------------------------------------------------------
g-----------------------------------------------------------------
d-----------------------------------------------------------------
a-----------------------------------------------------------------
d-7-0-8-1-1-4-4-7-7-0-8-1-1-4-4-7-7-0-8-1-1-4-4-7-7-0-8-1-1-4-4-7-

Outro:

e-----------------------------------------------------------------
b-----------------------------------------------------------------
g-----------------------------------------------------------------
d-----------------------------------------------------------------
a-65-----32-----65-----32------0--0------0--------------------
d-65-0-0-32-0-0-65-0-0-32-0-0--0--0------0--------------------

that’s all
i didn’t include sid’s turn table parts, because that would be useless, cuz’ they don’t 
really sound like it, on gtr.

trevor jones
[email protected]


Текст, аккорды и табулатура для песни "People Shit", исполняет "Slipknot".
Используемые в песне аккорды можно найти в разделе Как брать аккорды. Аккорды для шестиструнной гитары. Другие песни можно найти на нашем сайте, воспользовавшись алфавитным указателем вверху страницы.


Слушать онлайн People = Shit


SlipknotPeople = Shit на Яндекс.Музыке


 
Ошибка в тексте? Выделите ошибку и нажмите Ctrl+Enter