No Life-Slipknot
Slipknot

Drop B
B F# B E G# C#

*=harmonics

Riff A

e----------------------------------------------
b----------------------------------------------
g----------------------------------------------
d----------------------------------------------
a----------------------------------------------
d-6b--0-6b---0-0h7-7p0-6b--0-6b---0-0h7-7p0----

e----------------------------------------------
b----------------------------------------------
g----------------------------------------------
d----------------------------------------------
a----------------------------------------------
d-6b--0-6b---0-0h7-7p0-6b--0-6b---0-0h7-7p0----

Interlude:
             * * * *                 * * * *
e----------------------------------------------
b----------------------------------------------
g------------5-5-5-5-----------------5-5-5-5---
d----------------------------------------------
a-2--0-1---0--------------2--0-1---0-----------
d-2--0-1---0--------------2--0-1---0-----------

Fig 1.

e----------------------------------------------
b----------------------------------------------
g------------5-5--------------------5-5--------
d----------------5----------------------5------
a-2--0-1---0-------5-----2--0-1---0-------5----
d-2--0-1---0-------------2--0-1---0------------

Verse 2 gtrs

e----------------------------------------------
b----------------------------------------------
g----------------------------------------------
d-2--1--1-1-2--2-1-2-3----2-1-1-2-2-1-2-3------
a----------------------------------------------
d-2--1--1-1-2--2-1-2-3----2-1-1-2-2-1-2-3------

e----------------------------------------------
b----------------------------------------------
g----------------------------------------------
d-----2-1-1-2-2-1-2-3----2-1-1-2-2-1-2-3-------
a----------------------------------------------
d-----2-1-1-2-2-1-2-3----2-1-1-2-2-1-2-3-------

Chorus x4

e----------------------------------------------
b----------------------------------------------
g-------------5-5-5-5--------------5-5-5-5-----
d----------------------------------------------
a-7--0-4---3-----------7--0-4---3--------------
d-7--0-4---3-----------7--0-4---3--------------

Fig 2

e----------------------------------------------
b----------------------------------------------
g-------------5-5-5-5--------------5-5-5-5-----
d----------------------------------------------
a-7--0-4---3-----------7--0-4---3--------------
d-7--0-4---3-----------7--0-4---3--------------

e----------------------------------------------
b----------------------------------------------
g-------------5-5-5-5--------------------------
d----------------------------------------------
a-7--0-4---3-----------7-7-7-2-4-3-2-----------
d-7--0-4---3-----------7-7-7-2-4-3-2-----------

Bridge:

e----------------------------------------------
b----------------------------------------------
g----------------------------------------------
d----------------------------------------------
a----------0--0--0-----------0--0--0-----------
d-0--1--0--0--0--0--0--1--0--0--0--0--0--1--0--

e----------------------------------------------
b----------------------------------------------
g----------------------------------------------
d----------------------------------------------
a-0--0--0-----------0--------------------------
d-0--0--0--0--1--0--0--4--4---------------------

e----------------------------------------------
b----------------------------------------------
g----------------------------------------------
d-7--7--7--7--7--7--5--5--5--5--5--5-----------
a-------------------------------------1--1--1--
d----------------------------------------------

e----------------------------------------------
b----------------------------------------------
g----------------------------------------------
d----------------------------------------------
a-1--1--1--2--2--2--2--2--2--------------------
d----------------------------------------------

Fig 4.

e-------------------------------------------------------
b-------------------------------------------------------
g-------------------------------------------------------
d-------------------------------------------------------
a-2--1--0-0-3--2--0-0-3--3--2--1--0-0-3--2--0-0-3--3----
d-2--1--0-0-3--2--0-0-3--3--2--1--0-0-3--2--0-0-3--3----

that’s all
just piece it together

trevor jones
[email protected]


Текст, аккорды и табулатура для песни "No Life", исполняет "Slipknot".
Используемые в песне аккорды можно найти в разделе Как брать аккорды. Аккорды для шестиструнной гитары. Другие песни можно найти на нашем сайте, воспользовавшись алфавитным указателем вверху страницы.


Слушать онлайн No Life


SlipknotNo Life на Яндекс.Музыке


 
Ошибка в тексте? Выделите ошибку и нажмите Ctrl+Enter