Прежде чем играть Slipknot настройте ваш инструмент таким образом: 1-я струна: B4, 2-ая: 
F#4, 3-я: D4, 4-я:  A3, 5-я: E3, 6-я: A2. Для тех, кто не понимает о чем идет речь, 
состройте четвертую и шестую струны (просто спустите шестую).

------------------------------------------------------>
------------------------------------------------------>
------------------------------------------------------>
------------------------------------------------------>
|-3-3-3-3-3-3-3-3-2-2-2-2-2-2-2-2--------------------------------->
----------------------3-3-3-3-3-3-3-3-6-6-6-6-6-6-6-6->

------------------------------------------------------|
------------------------------------------------------|
------------------------------------------------------|  2 раза
------------------------------------------------------|
------------------------------------------------------|  
|-5-5-5-5-5-5-5-5-5-5-5-5-5-5-53-1-1-1-1-1-1-1-1-1-1-1-1-1-1-1-1-|

You are wrong, fucked, and overrated
I think I´m gonna be sick and it´s your fault
This is the end of everything
You are the end of everything
I haven´t slept since I woke up
And found my whole life was a lie, motherfucker
This is the end of everything
You are the end of everything

----------------------------------------------|
----------------------------------------------|
----------------------------------------------|   4 раза
|-0-1-4-1-0--0-1-4-1-0--0--4--0--6--0--0-1-4-1-0--1-1-1-1-|
|-0-1-4-1-0--0-1-4-1-0--0--4--0--6--0--0-1-4-1-0--1-1-1-1-|
|-0-1-4-1-0--0-1-4-1-0--0--4--0--6--0--0-1-4-1-0--1-1-1-1-|


----------------|
----------------|   
----------------|  4 раза  
----------------|
----------------|
|-0-1-2-0-0-1-2---1-2---1-2-|

Shallow skin, I can paint with pain
I mark the trails on my arms with your disdain
Everyday it´s the same - I LOVE, YOU HATE
But I guess I don´t care any more...

----------------|
----------------|   
----------------|  4 раза  
|-0-1-2-0-0-1-2---1-2---1-2-|
|-0-1-2-0-0-1-2---1-2---1-2-|
|-0-1-2-0-0-1-2---1-2---1-2-|

Fix my problems with the blade
While my eyes turn from blue to gray
God, the worst thing happened to me today
But I guess I don´t care anymore...

Вступление перед припевом:
-----------------------------------------------|
-----------------------------------------------|
-----------------------------------------------|
-----------------------------------------------|
-------------------0-0-0-6--0-6--0-0-0-2--0-1-1|
|-0-0-0-6--0-6--0-0-0-2--0-1-1-0-0-0-6--0-6--0-0-0-2--0-1-1|

Припев:
------------------------------------------------------>
------------------------------------------------------>
------------------------------------------------------>
|-5-5-5-5-5-5-5-5-4-4-4-4-4-4-4-4--------------------------------->
|-3-3-3-3-3-3-3-3-2-2-2-2-2-2-2-2-3-3-3-3-3-3-3-3-6-6-6-6-6-6-6-6->
----------------------3-3-3-3-3-3-3-3-6-6-6-6-6-6-6-6->

----------------|
|----8--------------4-------|
|----7--------------3-------|
|-5--------------1----------|
|-5--------------1----------|
|-5----------3-3-1----------|


You are wrong, fucked, and overrated
I think I´m gonna be sick and it´s your fault
This is the end of EVERYTHING
You are the end of EVERYTHING

------------------------------------------------------>
------------------------------------------------------>
------------------------------------------------------>
|-5-5-5-5-5-5-5-5-4-4-4-4-4-4-4-4--------------------------------->
|-3-3-3-3-3-3-3-3-2-2-2-2-2-2-2-2-3-3-3-3-3-3-3-3-6-6-6-6-6-6-6-6->
----------------------3-3-3-3-3-3-3-3-6-6-6-6-6-6-6-6->

----------------|
|----8--------------4-------|
|----7--------------3-------|
|-5--------------1----------|
|-5--------------1----------|
|-5----------3-3-1----------|


I haven´t slept cince I woke up
And found my whole life was a lie, motherfucker
This is the end of EVERYTHING
You are the end of EVERYTHING

Второй куплет, по игре, аналогичен первому

My flaws are the only thing left that´s pure
Can´t really live, can´t really endure
Everything I see reminds me of her
God I wish I didn´t care anymore
The more I touch, the less I feel
I´m lying to myself that it´s not real
Why is everybody making such a big fucking deal?
I´m never gonna care anymore


Проигрыш:

Гитара 1:

------------------------------|
|-11------------------11------------------|
|-14B-----------------14B-----------------|
------------------------------|
------------------------------|
------------------------------|

------------------------------|
|-13------------------14------------------|
|-16B-----------------17B-----------------|
------------------------------|
------------------------------|
------------------------------|


Гитара 2(одновременно с гитарой 1)

------------------------------|
------------------------------|
|-------13-14---13-14-------13-14---13-14-|
|-------13-14---13-14-------13-14---13-14-|
|-------11-12---11-12-------11-12---11-12-|
|-0-0-0-------0-------0-0-0-------0-------|

------------------------------|
------------------------------|
|-------13-14---13-14---------------------|
|-------13-14---13-14-22------------------|
|-------11-12---11-12-22------------------|
|-0-0-0-------0-------22------------------|

Конец проигрыша и начало последнего куплета:

---------------------|
---------------------|
|--------2-----------------------|  4 раза
|-4--3---2---1---0---2-----3-----|
|-4--3---0---1---0---2-----3-----|
|-4--3-------1---0---2---0-3---0-|

What the hell am I doing?
Is there anyone left in my life?
What the fuck was I thinking?
Anybody want to tell me I´m fine?
Where the hell am I going?
Do I even need a reason to hide?
I am only betrayed
I am only conditioned to die

Оканчивается все знакомым припевом.


Текст, аккорды и табулатура для песни "Everything Ends", исполняет "Slipknot".
Используемые в песне аккорды можно найти в разделе Как брать аккорды. Аккорды для шестиструнной гитары. Другие песни можно найти на нашем сайте, воспользовавшись алфавитным указателем вверху страницы.


Слушать онлайн Everything Ends


SlipknotEverything Ends на Яндекс.Музыке


 
Ошибка в тексте? Выделите ошибку и нажмите Ctrl+Enter