Song:Don't Get Close
Artist:Slipknot
Album:Vol. 3 (the subliminal verses)
Tabbed by:Corey Adamson

Yea i cant wait for the new album to come out. this is of course another kick ass slipknot
song. This is a tab i threw 2gether real fast so dont bitch at me if some parts are off,
this is a fucking hard song to figure out.

TUNING: uhh im not to sure about this...Drop d Tuning, down 1 1/2 steps:(low to high)B-F-B-E-G-C

Intro: (This is after that noise and the DONG sort of thing)
---------------------           -----------------
---------------------           -----------------
---------------------   X2      -----------------   
---------------------           -----------------    corey: COME ON!
-5-4--3-2--1-0-576443           -5-4-3-2-10-57443
---------------------           ------------57643

Preverse:
------------------------
------------------------
------------------------   X 4
------------------------
-5-4-0-3-2-0-1-0-576443-
-5-4-0-3-2-0-1-0-576443-

 VERSE:
-------------------------
-------------------------
-------------------------
-------------------------  Basicaly the same as the intro
5-4--3-2-1-0--57643------
5-4--3-2-1-0--57643------
1.Somebody give me some light 
And not punch it in the dark
Somebody show me the end 
And I try to push to start 

I'm trying to figure out 
A better way, a better answer 
But I keep finding all the problems 
I've been looking after 

You can't wander through the world 
With nothing but a smile 
I'll take your tongue for words 
And use it to instill denial 

2.Maybe I should look away 
Before I ruin this 
Maybe I should pick the time 
Before I pick the place 

I'm into all the things that emulate then penalize 
But I don't want to go until you learn to finalize

CHORUS:
------------------------------------------------
------------------------------------------------
------------------------------------------------
------------------------------------------------
7-8-7---3-4-3---7-8-7---3-4-3---1-0-------------
7-8-7---3-4-3---7-8-7---3-4-3---1-0--12-13-15-13- 

Don't get close! 
You don't know me and you'll never know 
Chivalry! 
Will get you somewhere 
Rivalry! 
Will take you there

2nd Chorus Thingy:
------------------
------------------
------------------
------------------
540---------------
540-0000000-------
   P.M.....
You ascertain the plot
My vision's all but shot
I have the best confession
Always scarred for all the lessons
For the quaints and the same time used
Stay out and be infused
I didn't want to be
The undeniable souls of envy

Don't get close! [Better stay away!]
Don't get close! [Better stay away!] 
Don't get close! [Better stay away!]
Don't get close! [Better stay away!]



....And that's all i got. until next time maggots....keep it (sic)


Текст, аккорды и табулатура для песни "Dont Get Close", исполняет "Slipknot".
Используемые в песне аккорды можно найти в разделе Как брать аккорды. Аккорды для шестиструнной гитары. Другие песни можно найти на нашем сайте, воспользовавшись алфавитным указателем вверху страницы.


 
Ошибка в тексте? Выделите ошибку и нажмите Ctrl+Enter