Artist: Slick Shoes
Song: Friday Night

Intro:
(7x's)
e-----
B-----
G-----
D---7-
A---7-
E--5--

Verse:
(palm muted 4x's)
e----------
B----------
G--------7-
D--7--4--7-
A--7--4--5-
E--5--2----

Bridge:

e--------------
B--------------
G--6--------7--
D--6-(mute)-7--(let ring)
A--4--------5--
E--------------

Chorous:

ex
Bx
G--7----9--------------7----9----6------7----9--------------7----9-------
D--7----9----7----4----7----9----6------7----9----7----4----7----9----7--
A--5----7----7----4----5----7----4------5----7----7----4----5----7----7--
E------------5----2-------------------------------5----2--------------5--

Verse:
(palm muted)
e------------------------------------------------------------------------------
B------------------------------------------------------------------------------
G-----------------------------------------7-----------------------------------7
D--------------------------------------4--7-------7------6-----------------4--7
A------7------7------7------7------7---4--5----------------------7------7--4--5
E--5-5----5-5----5-5----5-5----5-5------2-----5-5----5-5-----5-5----5-5-----2--

Bridge:

e--------------
B--------------
G--6--------7--
D--6-(mute)-7--(mute then let ring)
A--4--------5--
E--------------

Chorous:





The part after the chorous:
(2x's)
e---------------
B---------------
G--7------------
D--7--7--6--4--2
A--5--7--6--4?2
E-----5--4--2--0




Bridge #II:
e---------------
B---------------
G--7------------
D--7--7--2------
A--5--7--2------
E-----5--0------

Back to Chorous and end on:

e---------------
B---------------
G---------------
D--7------------
A--7------------
E--5------------


TABBED BY PAUL G. CAUDILLO!!


Текст, аккорды и табулатура для песни "Friday Night", исполняет "Slick Shoes".
Используемые в песне аккорды можно найти в разделе Как брать аккорды. Аккорды для шестиструнной гитары. Другие песни можно найти на нашем сайте, воспользовавшись алфавитным указателем вверху страницы.


 
Ошибка в тексте? Выделите ошибку и нажмите Ctrl+Enter