Artist: Slayer
  Song: Antichrist
    By: Angelo Chimienti
  Mail: [email protected] 

Legend:
       H-----Hanmer-on
       P-----Pull-off
      Pm-----Palm Mute
       T-----Tapping
      /-----Slide
       B-----Bend
       /-----W/Trem
      / 

Intro

                          4x¦                          3x¦
Eb--------------------------¦----------------------------¦---------------
Bb--------------------------¦----------------------------¦---------------
Gb--------------------------¦----------------------------¦---------------
Db----4-2-------4-2-------4-¦----4-2---------4-2-------4-¦----4-2--------
Ab--------4-3-------4-3---2-¦--------4-3---------4-3---2-¦--------4-3----
Eb-2----------2---------2---¦-0-----------2----------2---¦-2-------------
 
                     Verse

Eb-------------------¦---------------------------------------------------
Bb-------------------¦---------------------------------------------------
Gb-------------------¦---------------------------------------------------
Db---4-2-------------¦---9/10----9/10--------------------7------9/10---9/10
Ab-------4-3-2-------¦pm-7/8--pm-7/8--pm-9/10-pm--9/10pm-5---pm-7/8--pm7/8
Eb-2-----------4-3-2-¦-0-------0------0--7/8---0--7/8--0------0-------0--


                          ¦alternative ending ¦chorus
Eb---¦--------------------¦-------------------¦--------------------------
Bb---¦--------------------¦-------------------¦-10-10----10-6---6/6---6/10
Gb---¦--------------------¦-------------------¦-9--9-----9--7---7/5---5/9
Db---¦------------------12¦--7-5--------------¦-7--7-----7--5---5/3---3/7
Abpm-¦9/10-pm--9/10--pm-10¦------7-6-5--------¦--------------------------
Eb-0-¦7/8---0--7/8---0----¦-------------7-6-5-¦--------------------------


                             under solo 1                       further
                                                                 in solo
Eb--------------------------¦----------------------------------¦---------
Bb-10--------10--------13--/¦----------------------------------¦---------
Gb-9---------9---------12--/¦----------5----4------------------¦---------
Db-7---------7---10----10--/¦-2--------5----4--2---------5---7-¦-9---9---
Ab---------------8----------¦-2--------3----2--2---------5---7-¦-7---7---
Eb--------------------------¦-0--000000--------0--000000-3---5-¦-------00


                                ¦faster part of solo              ending
Eb------------------------------¦--------------------------------¦-------
Bb------------------------------¦--------------------------------¦-------
Gb------------------------------¦5---------------4---------------¦-------
Db--9--9----------44-4----------¦5---------------4---------------¦/777-7-
Ab--7--7----7--7--22-2--33--3---¦33333333333333332222222222222222¦/555-5-
Eb00-----00-5--5--------11--1-00¦--------------------------------¦-------



Eb--------------------¦-¦------------------------------------------------
Bb--------------------¦-¦------------------------------------------------
Gb--------------------¦-¦------------------------------------------------
Db-999-9-777-7-555-5-2¦-¦------------------------------------------------
Ab-777-7-555-5-333-3-0¦-¦------------------------------------------------
Eb--------------------¦-¦------------------------------------------------


  GUITAR SOLO              -------
     /full            ///          /full
Eb-22---------------22-------------22-------22p19-22p21p1920p19p17-18p17p15
Bb-----------------------------------------------------------------------
Gb-----------------------------------------------------------------------
Db-----------------------------------------------------------------------
Ab-----------------------------------------------------------------------
Eb-----------------------------------------------------------------------


                         /3/4/full----------      full    ///
Eb-17p16p14-15p14--12---/-----------------------/-------/---------------
Bb--------------------13-----------------------13------13---------/10----
Gb-----------------------------------------------------------------------
Db-----------------------------------------------------------------------
Ab-----------------------------------------------------------------------
Eb-----------------------------------------------------------------------


                                                  full
Eb-----------------------------------------------/-----------------------
Bb-13p11p10-11p10-13p11p10-11p10-------15--18-18/--------(18)/-----------
Gb-------------------------------12/17-----------------------------------
Db-----------------------------------------------------------------------
Ab-------------------------------------------------------------17p15h17--
Eb-----------------------------------------------------------------------



Eb-------------------------------------------181817151517181817151517181817
Bb-------------------------------------15h17-----------------------------
Gb--------------------15---15h17p15h17-----------------------------------
Db15h17p15h17p15h17-17--17-----------------------------------------------
Ab-----------------------------------------------------------------------
Eb-----------------------------------------------------------------------



Eb15151718181718182022171723171722171720171721717241717221717201717221717
Bb-----------------------------------------------------------------------
Gb-----------------------------------------------------------------------
Db-----------------------------------------------------------------------
Ab-----------------------------------------------------------------------
Eb-----------------------------------------------------------------------



Eb2417172217172017172217172417172017-----1717----------------------------
Bb-------------------------------------------20/-------------------------
Gb-----------------------------------------------------------------------
Db-----------------------------------------------------------------------
Ab-----------------------------------------------------------------------
Eb-----------------------------------------------------------------------


                               full///                      vib-------¦
Eb----------------------------/-------------/3/4//---------------------
Bb---------------vibrato-----/-------------/------------15-17-17---------
Gb-------3/////12////--12------------12---------/10------------------
Db-----------------------------------------------------------------------
Ab-----------------------------------------------------------------------
Eb-----------------------------------------------------------------------


       full----------------------      /full
Eb----/------------------------------/----------------------------------
Bb-17/-----------------------------17--------171717/151515/171717/191919
Gb-----------------------------------------------------------------------
Db-----------------------------------------------------------------------
Ab-----------------------------------------------------------------------
Eb-----------------------------------------------------------------------


                                   /     vib.                      vib---¦
Eb--------------------------------/--------------------------------------
Bb/202020/222222/202020/171717--17-----17--------17p15--15--17p15--------
Gb----------------------------------------------------16--16-----16------
Db-----------------------------------------------------------------------
Ab-----------------------------------------------------------------------
Eb-----------------------------------------------------------------------



Eb----------------0-3p0-5p3p0-3p0-5p3p0-3p0-5p3p0-3p0-5p3p0-5p0-7p5p0-5p0
Bb-----------------------------------------------------------------------
Gb-----------------------------------------------------------------------
Db-----------------------------------------------------------------------
Ab-----------------------------------------------------------------------
Eb-----------------------------------------------------------------------

                                 8 times
                                 ---------------------------------------¦
Eb7p5p0-5p0-7p0h5p0-7p0-0-3p0-12-15p12p10--------------------------------
Bb-----------------------------------------------------------------------
Gb-----------------------------------------------------------------------
Db-----------------------------------------------------------------------
Ab-----------------------------------------------------------------------
Eb-----------------------------------------------------------------------



Eb15p12-15p12-15p12------------------------------------------------------
Bb------------------15p12-15p12-15p12---------------------------12-------
Gb------------------------------------14p12-14p12-14p12----14-----------
Db-----------------------------------------------------14/---------------
Ab-----------------------------------------------------------------------
Eb-----------------------------------------------------------------------

          vib.
       /---------------¦          /full          /full
Eb----/--------------------------/--------------/------------------------
Bb--15-------------------15/17-17---------/20-20-------------------------
Gb-----------------------------------------------------------------------
Db-----------------------------------------------------7p9-10p9p7-12p10p9
Ab-----------------------------------------------------------------------
Eb-----------------------------------------------------------------------


                                end of solo
Eb---------------------------------¦¦------------------------------------
Bb---------------------------------¦¦------------------------------------
Gb---------------------------------¦¦------------------------------------
Db-----------------7-5-------------¦¦------------------------------------
Ab-12p10p9-10p9p7------7-6-5-------¦¦------------------------------------
Eb---------------------------7-6-5-¦¦------------------------------------


Текст, аккорды и табулатура для песни "The Antichrist", исполняет "Slayer".
Используемые в песне аккорды можно найти в разделе Как брать аккорды. Аккорды для шестиструнной гитары. Другие песни можно найти на нашем сайте, воспользовавшись алфавитным указателем вверху страницы.


 
Ошибка в тексте? Выделите ошибку и нажмите Ctrl+Enter