SS-3 By:Slayer

                       Transcribed By L0RDNATAS

                      Off the Album Devine Intervention

Tune down 1/2 step
                                                     1st 3 times

D-0-2-----3-1-----0-2-----5-3------0-2-----3-1----|--9/8-----7/6-------
A-0-2-----2-1-----0-2-----2-2------0-2-----2-1----|--7/6-----5/4-------
E------0-------0-------0--------0-------0-------0-|8-----7-6-----------
  4th Time
D--9/8-----7/6---------------------------------------------------------
A--7/6-----5/4------5--------------------------------------------------
E8-----7-6-----5-6--3--------------------------------------------------

Repeat 2 times

D--------3---------------5---------------3-------5/4---6/5-------------
A--------1---------------3---------------1-------3/2---4/3-------------
E2-2-2-2---2-2-2-2-2-2-2---2-2-2-2-2-2-2---2-2-2-----3-----4-----------

D---------3-------------5----------------------------------------------
A---------1-------------3---------------------------3-2-0--------------
E-2-2-2-2---2-2-2-2-2-2---2-2-2-5-3-2-5-3-2-2-2-2-2--------------------

E3-2-0-3-2-0-0-0-0-0-3-2-0---------------------------------------------


Ancient Crown........
A3---------------------------3---------------------1-------------------
E1-0-0-0-0-0-0-0-0-0-0-0-0-0-1-0-0-0-0-0-0-0-0-0-0-1-3-2---------------

A3---------------------------3---------------------1-------------------
E1-0-0-0-0-0-0-0-0-0-0-0-0-0-1-0-0-0-0-0-0-0-0-0-0-1-3-2-0-1-2---------

A3---------------------------3---------------------1-------------------
E1-0-0-0-0-0-0-0-0-0-0-0-0-0-1-0-0-0-0-0-0-0-0-0-0-1-3-2---------------

A3---------------------------3-----------1-----1----------------------
E1-0-0-0-0-0-0-0-0-0-0-0-0-0-1-0-0-0-0-0-1-3-2-1-3-0------------------


Hunting,Fighting ..............               first time
E2-2-2-2-3-2-0-2--2-2-2-2-3-2-0-2-2-2-2-3-2-0|5-3-2-3-2-0------------

                                             second time
                                             A--------------65----54
                                             E2-2-2-2-3-2-0-43--4-32



Burning Sense.............                          4th time
D--------------6/6---2/4----------------3/5---2/4--|-4/3---3/2------
A--------------4/3---3/2----------------4/6---3/5--|-2/1---1/0------
E4-4-4-4-4-4-4-----4-----3-4-4-4-4-4-4-4----4-----3|-----2-----1----



Campaign(voice echos)                            1st 3 times
D----------------------------------------------8|-------------------
A6-------------7-10-7-----6-------------7-10-6--|6---------5-------7
E6-0-0-0-0-0-0------7-0-0-6-6-6-6-6-6-6---------|6-0-0-0-0-5-0-0-0-7

                                                 4th
                                                D------------------
                                                A6---------5-------
                                                E6-0-0-0-0-5--12///



Crusade resistance........
A6-------------------------7----10-----------------------------9---
E4-4-4-4-4-4-4-4-4-4-4-4-4-5----8--8-8-8-8-8-8-8-8-8-8-8-8-8-8-7---

A------------10-9-7-6--------------------------7-------------------
E7-7-7-7-7-7-8--7-5-4--4-4-4-4-4-4-4-4-4-4-4-4-5-------------------

A10-----------------------------9-7-9-10-9-7-----------------------
E8--8-8-8-8-8-8-8-8-8-8-8-8-8-8-7-5-7-8--7-5-----------------------

A10-----------------------------9-7-9-10-9-7-----------------------
E8--8-8-8-8-8-8-8-8-8-8-8-8-8-8-7-5-7-8--7-5-----------------------



Retribution,Selective terror........
D-----------------------------------------------------------------
A-----------------------------------------------------------------
E0>2-2-2-2-2-2-2-3>1-1-1-1-1-1-1-0>2-2-2-2-2-2-2-5>3-3-3-3-3-3-3--

D-----------------------------------------------------------------
A-----------------------------------------------------------------
E0>2-2-2-2-2-2-2-3>1-1-1-1-1-1-1-0>2-2-2-2-2-2-2-3-3-3-3-3-3-3-3-3.


Ending

A6---------5-------7-6---------4---------5-7----------------
E6-0-0-0-0-5-0-0-0-7-6-0-0-0-0-4-0-0-0-0-5-7----------------


                              Solo's

B-#= Bend+Step      ///=vibrato      !=Tremelo Pick

Solo 1
  B-1 ////!    !
E----------------------13-12-13-15-13-12------------------------
B(15)---------12---12--------------------15-13-12-13-15-13-12---
G---------------------------------------------------------------
D---------------------------------------------------------------
A---------------------------------------------------------------
E---------------------------------------------------------------
        B 1 1/2        /////
E---------------------------------------------------------------
B---------------------------------------------------------------
G-14-12(14)-12-14-12-11----------12-14-12-11--------------------
D--------------------------------------------14-12-11-12-11-12--
A---------------------------------------------------------------
E---------------------------------------------------------------

E---------------------------------------------------------------
B---------------------------------------------------------------
G---------------------------------------------------------------
D-11-12-14-12-11------------------------------------------------
A----------------14-12-11-12-11-12-11-12-11-12-14-11-12-14------
E--------------------------------------------------------------

A-12-11---------------------------------------------------------
E-------12//////////--------------------------------------------


Second Solo             *=Harmonic

The Second solo is a classic Slayer Solo with heavy use of the
Whammy bar.Im not even going to try to tab out when he dives
to what extent and were.But i will tell you he dives down 1 1/2,
2 and 4 1/2 steps through out it.Its also heavy hammer ons.
                                                      *
E--------------------------------------------------------------
B--------------------------------------------------------------
G--12------9-12-9-12-9-12-9-12-9-12-9-12-9-12-9-12-9--5--------
D--------------------------------------------------------------
A--------------------------------------------------------------
E--------------------------------------------------------------
               /////                P  H  P    P  H  P
E--------------19----------19-20-19-22-20-19-20-19-22-20-19----
B--------------------------------------------------------------
G--0-----0-----------------------------------------------------
D--------------------------------------------------------------
A--------------------------------------------------------------
E--------------------------------------------------------------

    p  h  p    p  h  p   p  h  p  p  h  p  B=1    p
E--22-20-19---22-20-19--22-20-19-22-20-19--22---22-19----------
B--------------------------------------------------------------
G--------------------------------------------------------------
D--------------------------------------------------------------
A--------------------------------------------------------------
E--------------------------------------------------------------

        h  p  h  p  B=1                           *
E-(19)--22-19-22-19-22-----------------------------------h-////
B-------------------------------------------------5------20----
G--------------------------0-----0--------0--------------------
D--------------------------------------------------------------
A--------------------------------------------------------------
E--------------------------------------------------------------


 well thats about it!!!!!Good Luck(Youll need it!)


Текст, аккорды и табулатура для песни "Ss-", исполняет "Slayer".
Используемые в песне аккорды можно найти в разделе Как брать аккорды. Аккорды для шестиструнной гитары. Другие песни можно найти на нашем сайте, воспользовавшись алфавитным указателем вверху страницы.


 
Ошибка в тексте? Выделите ошибку и нажмите Ctrl+Enter