+=Artificial Harmonic
P.m.=Palm Mute
h= hammer on
p= pull off            Eb, Ab, Db, Gb, Bb, Eb

GTR1 Intro
----------------------------------------|
----------------------------------------|
----------------------------------------|
----------------------------------------|
|2----7p5----8p7---10p8---2----7p5----8p7----5--3---|
|0-00-----00----00-----00-0-00-----00-----00-3--1---|     
   pm     pm    pm     pm   pm     pm     pm
 
GTR2
----------------------------------------|
----------------------------------------|
----------------------------------------|
----------------------------------------|
|2-------------------------------------------5--3---|
|0-------------------------------------------3--1---|

GTR1                                   Fill.1..
----------------------------------------|
----------------------------------------|
----------------------------------------|
----------------------------------------|
|2----7p5----8p7----10p8----2----7p5----2320*---3---|
|0-00-----00-----00------00-0-00-----00------30-1---|
   pm     pm     pm      pm   pm     pm........

GTR2
----------------------------------------|
----------------------------------------|
----------------------------------------|
----------------------------------------|
|2--------------------------2-----------------------|
|0--------------------------0-----------------------|

Both guitars do GTR 1´s part again(this will be Riff 1).
GTR 1 does fill 1 by itself.

Verse
GTR´s 1 and 2
----------------------------------------|
----------------------------------------|
----------------------------------------|
----------------------------------------|
|2----------------2----7p5----8p7----10p8-----------|
|0-00000000000000-0-00-----00-----00------00--------|


----------------------------------------|
----------------------------------------|
----------------------------------------|
----------------------------------------|
|2----------------2----7p5----8p7----5--3-----------|
|0-00000000000000-0-00-----00-----00-3--1-----------|

Repeat verse

Chorus (easy but heavy riff!)
----------------------------------------|
----------------------------------------|
----------------------------------------|
-----------------2h3p2p0----------------|
|2----3--------3--------3-----------2h3p2p0---------|
|0-00-1-000000-1-000000-1-00------------------------|
   pm   pm....   pm....   pm
----------------------------------------|
----------------------------------------|
----------------------------------------|
-----------------2h3p2p0-----+1---------|
|2----3--------3--------3------------3p2------------|
|0-00-1-000000-1-000000-1-00------------------------|
   pm   pm....   pm....   pm
----------------------------------------|
----------------------------------------|
----------------------------------------|
-----------------2h3p2p0----------------|
|2----3--------3--------3------------2h3p2p0--------|
|0-00-1-000000-1-000000-1-00------------------------|
   pm   pm....   pm....   pm
----------------------------------------|
----------------------------------------|
----------------------------------------|
----------------------------------------|
|2----3--------3--------3----2320---3---------------|
|0-00-1-000000-1-000000-1-00-----30-1---------------|
   pm   pm....   pm....   pm.......

Riff 1
Verse
Chorus

Now GTR1 plays a solo over the verse riff as a melody
GTR2 plays the verse riff four times.

INTURLUDE!!! GTR1
----------------------------------------|
----------------------------------------|
----------------------------------------|
----------------------------------------|
-6h76----------6h76-----REAPEAT---------|
|12-0000000------00000000----4---------------------|
     pm.....      pm......
 Riff2
----------------------------------------|
----------------------------------------|
----------------------------------------|
----------------------------------------|
|---2--6h76-2----6h76------------REPEAT-------------|
|00-0-------0-00----4-------------------------------|
 pm           pm
GTR2
----------------------------------------|
----------------------------------------|
----------------------------------------|
----------------------------------------|
|------2----2-----------------2----2-------6--------|
|------0----0-----------------0----0-------4--------|

GTR´s 1 and 2                   RIFF 3
----------------------------------------|
----------------------------------------|
----------------------------------------|
----------------------------------------|
-6h76-------------6h76------------------|
|000000000000-----000000000000---4------------------|
 pm..........     pm..........
 1   2   3   4    1   2   3   4

Riff 2 (both guitars do their parts)
Riff 3, 4 times



This the melody:
----------------------------------------|
----------------------------------------|
----------------------------------------|
----------------------------------------|
|55555555555555456666666666666686-------------------| 4x
|33333333333333234444444444444464-------------------|
 pm............  pm............
 1   2   3   4   1   2   3   4

----------------------------------------|
----------------------------------------|
----------------------------------------|
----------------------------------------|
|33333333333333333333333333333333rest2--------------|
|11111111111111111111111111111111rest0--------------|
 pm..............................

Riff 3, four times
Riff 2                    965
hold E5 at end and then,  743


Текст, аккорды и табулатура для песни "Spirit In Black", исполняет "Slayer".
Используемые в песне аккорды можно найти в разделе Как брать аккорды. Аккорды для шестиструнной гитары. Другие песни можно найти на нашем сайте, воспользовавшись алфавитным указателем вверху страницы.


 
Ошибка в тексте? Выделите ошибку и нажмите Ctrl+Enter