serenity in murder (solo)
album: divine intervention
slayer

tabbed by Rudy Guzman

solo1
eb:-------------------17-17b~~--14b~~-14~~--14-15-14-15-17-14h15p14------|
Bb:--15b-15b~~--15b~~----------------------------------------------------|
Gb:--14b-----------------------------------------------------------------|
Db:----------------------------------------------------------------------|
Ab:----------------------------------------------------------------------|
Eb:----------------------------------------------------------------------|

eb:---------------------------------------------------------------------|
Bb:17-14h15p14-14-14-15-14----------------------------------------------|
Gb:------------------------17-14-16-17-16-14---------------------8-9-8-9|
Db:----------------------------------------------9-8--8-9-8-9-11--------|
Ab:---------------------------------------------------------------------|
Eb:---------------------------------------------------------------------|

eb:---------------------------------21~~~---|
Bb:----------------------------19----------|
Gb:-11-8-9-8-------------12---18----------|
Db:----------11-8-9-8-9--12----------------|
Ab:-----------------------------------------|
Eb:-----------------------------------------|



solo 2
eb:21-21-21-18-18-18-17-17-17-18-18-17-17-15-15-21-21-21-17-18-17--|
Bb:----------------------------------------------------------------|
Gb:----------------------------------------------------------------|
Db:----------------------------------------------------------------|
Ab:----------------------------------------------------------------|
Eb:----------------------------------------------------------------|



eb:---------------------------------------------------------------|
Bb:-19-16-17-16---------------------------------------------------|
Gb:--------------18-15-16-15--------------------------------------|
Db:---------------------------17-14-15-14-------------------------|
Ab:---------------------------------------17-14-15-14-------------|
Eb:----------------------------------------------------17--12-12-|



eb:--------------------------------------------------------------*
Bb:--------------------------------------------------------------*
Gb:--------------------------------------------------------------*
Db:------------------------------------------------------12-14-12*
Ab:---------------------12-12-14-12-14-12-12-12-14-12-14---------*
Eb:12-15-12-15-12-12-12------------------------------------------*



eb:--------------------------12-14-15--18-18-18-17-17-17-15-15-*
Bb:-----------------12-13-15-----------------------------------*
Gb:-12-15--12-14-15--------------------------------------------*
Db:------------------------------------------------------------*
Ab:------------------------------------------------------------*
Eb:------------------------------------------------------------*



eb:17-17-17-18-18-21-21-21-22-22-22-22-21-21-18-18-21-21-22-22-*
Bb:------------------------------------------------------------*
Gb:------------------------------------------------------------*
Db:------------------------------------------------------------*
Ab:------------------------------------------------------------*
Eb:------------------------------------------------------------*



eb:-22b-22b-22b~~~~~~~----------------------------------------*
Bb:------------------------------------------------------------*
Gb:------------------------------------------------------------*
Db:------------------------------------------------------------*
Ab:------------------------------------------------------------*
Eb:------------------------------------------------------------*


Текст, аккорды и табулатура для песни "Serenity In Murder", исполняет "Slayer".
Используемые в песне аккорды можно найти в разделе Как брать аккорды. Аккорды для шестиструнной гитары. Другие песни можно найти на нашем сайте, воспользовавшись алфавитным указателем вверху страницы.


 
Ошибка в тексте? Выделите ошибку и нажмите Ctrl+Enter