Overt Enemy
Diabolus In Musica

DROPPED D TUNNING

BASS AND DRUMS
Gt 1
eb:|--------------------|---------------------|--------------------|
Bb:|--------------------|---------------------|--------------------|
Gb:|--------------------|---------------------|--------------------|
Db:|--------------------|---------------------|--------------------|
Ab:|----------6--5------|----------6--5-------|--------------------|
 D:|-0--7--6--------8---|-0--7--6--------8--7-|-5--4---8--7--11~~~-|


Gt 2
:-----------------------|---------------------|--------------------|
:-----------------------|----------4--3-------|--------------------|
:-----------------------|----2--1-------------|--------------------|
:-----------------------|---------------------|--------8--7--11~~~-|
:-------------6--5------|---------------------|-10--9--------------|
:----0--7--6--------8---|-0-------------------|--------------------|


Gt 1
:------------------------|
:------------------------|
:------------------------|
:------------------------|
:-------------6--5-------|
:----0--7--6--------8--7-|

Gt 2
:-------------------------------|
:-------------8--7--------------|
:-------------------7--6--------|
:-------7--6--------------------|
:-------------------------------|
:----0--------------------------|



:-----------------------------------------------------------------------------|
:-----------------------------------------------------------------------------|
:-----------------------------------------------------------------------------|
:-----------------------------------------------------------------------------|
:----3-2-0-3-2-0-0--3-2-0-3-2-6-6--3-2-0-3-2-0-0--3-2-0-3-2-6--3-2-0-3-2-0-0--|
:-0--3-2-0-3-2-0-0--3-2-0-3-2-6-6--3-2-0-3-2-0-0--3-2-0-3-2-6--3-2-0-3-2-0-0--|

:-----------------------------------------------|
:-----------------------------------------------|
:-----------------------------------------------|
:-----------------------------------------------|
:-3-2-0-3-2-6-6--3-2-0-3-2-0-0--3-2-0-3-2-6-6---|
:-3-2-0-3-2-6-6--3-2-0-3-2-0-0--3-2-0-3-2-6-6---|


i breach your life...
       repeat 3 times
:-------------------|-----------------------|
:-------------------|-----------------------|
:-------------------|-----------------------|
:-------------------|-----------------------|
:-0--3--2---0--6--5-|-3--0-0--0-0--0-0--0-0-|
:-0--3--2---0--6--5-|-3--0-0--0-0--0-0--0-0-|
                     pm  . .  . .  . .  . .

Abusing power...                    i hate your church...
  repeat 3 times                      repeat 3 times
:-------------------|--------------|-------------------*----------------------|

:-------------------|--------------|-------------------*----------------------|

:-------------------|--------------|-------------------*----------------------|

:-------------------|--------------|-------------------*----------------------|

:-0--3--2---0--6--5-|-3--0-0--0-0--|-0--3--2---0--6--5-*-3--0-0--0-0--0-0-----|

:-0--3--2---0--6--5-|-3--0-0--0-0--|-0--3--2---0--6--5-*-3--0-0--0-0--0-0-----|

                     pm  . .  . .


i'll sell your life...
  repeat 6 times     backing solo riff (repeat)   last part
:------------------|---------------------|--------------------*
:------------------|---------------------|--------------------*
:------------------|---------------------|--------------------*
:------------------|---------------------|--------------------*
:-0--7--6--0--7--1-|--0--7--6--0--7--1---|-0-0--0-0--0-0--0-0-*
:-0--7--6--0--7--1-|--0--7--6--0--7--1---|-0-0--0-0--0-0--0-0-*



solo
     repeat 2 times
:--------------------------|------------------------------------------------------|

:--------------------------|---------------------------------10-11-10-11-13-11-10-|

:9-9-9-8-9--12-12-12-11-12-|11h12p11----11h12p11----11-12-14----------------------|

:--------------------------|---------12----------12-------------------------------|

:--------------------------|------------------------------------------------------|

:--------------------------|------------------------------------------------------|



                         repeat 5 times
:-----------------------*-----------------*-20~~~~~--|
:-----------------------*--16-17-19-17-16-*----------|
:-14-11-12-11-----------*-----------------*----------|
:-------------14-12-14b-*-----------------*----------|
:-----------------------*-----------------*----------|
:-----------------------*-----------------*----------|
audicious plans...
 repeat 3 times
:-------------*------------------------------------------|
:-------------*------------------------------------------|
:-------------*------------------------------------------|
:-------------*------------------------------------------|
:-0-3-2-0-6-5-*-3--0-0--0-0--0-0--0-0--------------------|
:-0-3-2-0-6-5-*-3--0-0--0-0--0-0--0-0--------------------|
                pm . .  . .  . .  . .


  repeat 3 times
:-------------*-----------------------------------------|
:-------------*-----------------------------------------|
:-------------*-----------------------------------------|
:-------------*-----------------------------------------|
:-0-3-2-0-6-5-*-3--0-0--0-0--0-0--0-0-------------------|
:-0-3-2-0-6-5-*-3--0-0--0-0--0-0--0-0-------------------|
                pm . .  . .  . .  . .

i'll sell your life...
  repeat 6 times
:-------------------|
:-------------------|
:-------------------|
:-------------------|
:-0--7--6--0--7--1--|
:-0--7--6--0--7--1--|


note: is the same backing riff of the first solo

solo
:------------------------------------------------------|
:------------------------------------------------------|
:------------------------------------------------------|
:-------------------------5-7-5-7-5-7p5h7p5 etc--------|
:5-7-5-7-5-7-5-7p5h7p5-etc-----------------------------|
:------------------------------------------------------|
 pm...............................................

       repeat
:-----*---------*---------------------------------------------------12-11--|
:-----*---------*-------6-8-8b--------------------12h13p12----12-13--------|
:-4-5-*-4h5p4---*-4-5-7---------13-----13-----------------13---------------|
:-----*-------7-*------------------14b----14b~~~---------------------------|
:-----*---------*----------------------------------------------------------|
:-----*---------*----------------------------------------------------------|


:14-15-14h15p14-15-17-17p15p14-14h15p14-14-14-15-17-14h15p14-14-15-17-14h15p14-----|
:-------------------------------------------------------------------------------19b|
:----------------------------------------------------------------------------------|
:----------------------------------------------------------------------------------|
:----------------------------------------------------------------------------------|
:----------------------------------------------------------------------------------|


repeat 2 times
:-----------------------------------------*
:-----------------------------------------|
:-----------------------------------------|
:-----------------------------------------|
:-5-8-12-11-7-10-6-5-6-8-12-11-7-10-6~~~--|
:-----------------------------------------|

demonize wath is feared...
 repeat 3 times
:----------------------------------------------------|
:----------------------------------------------------|
:----------------------------------------------------|
:----------------------------------------------------|
:-3-2-0--3-2-0--3-2-3-2-0--3-2-0--3-2-3-2-0--3-2-0---|
:-3-2-0--3-2-0--3-2-3-2-0--3-2-0--3-2-3-2-0--3-2-0---|



repeat 2 times
:----------------------------------------------------|
:----------------------------------------------------|
:----------------------------------------------------|
:----------------------------------------------------|
:-5-8-12-11-7-10-6-5-6-8-12-11-7-10-6----------------|
:----------------------------------------------------|

smell the victims are near...                      cast out the demi
god...
                *repeat 8 times------------------*  repeat 2 times
:--------------------------------------------------|-----------------------------|
:--------------------------------------------------|-----------------------------|
:--------------------------------------------------|-----------------------------|
:--------------------------------------------------|-----------------------------|
:-3-2-0--3-2-0--3-2-3-2-0--3-2-0--3-2-3-2-0--3-2-0-|-0--0-0--0-0--0-0--0-0--0-0--|
:-3-2-0--3-2-0--3-2-3-2-0--3-2-0--3-2-3-2-0--3-2-0-|-0--0-0--0-0--0-0--0-0--0-0--|
                                                    pm  . .  . .  . .  .
.  . .

dethrone the demagogue...
repeat 4 times
:----------------------------------------|----------|
:----------------------------------------|----------|
:----------------------------------------|----------|
:----------------------------------------|----------|
:-5-8-12-11-7-10-6-5-6-8-12-11-7-10-6~~~-|-0-0-0-0--|
:----------------------------------------|-0-0-0-0--|
                                         pm. . . .


:----------------------|----------------------------------------------------------|
:----------------------|----------------------------------------------------------|
:----------------------|----------------------------------------------------------|
:----------------------|----------------------------------------------------------|
:----------6--5--------|-3-2-0-3-2-0-0-3-2-0-3-2-6-6-0-3-2-0-3-2-0-0-3-2-0-3-2-6--|
:-0--7--6--------8--7--|-3-2-0-3-2-0-0-3-2-0-3-2-6-6-0-3-2-0-3-2-0-0-3-2-0-3-2-6--|



:----------------------------------------------------------------|
:----------------------------------------------------------------|
:----------------------------------------------------------------|
:----------------------------------------------------------------|
:-3-2-0-3-2-0-0-3-2-0-3-2-6-6-0-3-2-0-3-2-0-0-3-2-0-3-2-6-6------|
:-3-2-0-3-2-0-0-3-2-0-3-2-6-6-0-3-2-0-3-2-0-0-3-2-0-3-2-6-6------|

i command your life...
 repeat 3 times
:--------------*--------------|
:--------------*--------------|
:--------------*--------------|
:--------------*--------------|
:-0-3-2--0-6-5-*--3--0-0------|
:-0-3-2--0-6-5-*--3--0-0------|


Текст, аккорды и табулатура для песни "Overt Enemy", исполняет "Slayer".
Используемые в песне аккорды можно найти в разделе Как брать аккорды. Аккорды для шестиструнной гитары. Другие песни можно найти на нашем сайте, воспользовавшись алфавитным указателем вверху страницы.


 
Ошибка в тексте? Выделите ошибку и нажмите Ctrl+Enter