Slayer
Necrophiliac
Hell Awaits
Tabbed by Mike Kimball


If it looks f***ed up, try using a monospace font,
such as Courier or Monaco.

Fig. 1
[gtr 1]
|-----------------------------------
|-----------------------------------
|--2-1------------------------------
|------2-1-3-2-----4-3--------------
|--------------3-2-----4-3-5-4------
|------------------------------5-4--

[gtr 2]
|-----------------------------------
|-----------------------------------
|-----------------------------------
|--4-3------------------------------
|------4-3-5-4-----6-5-----2-1------
|--------------5-4-----6-5-----2-1--


Fig. 2
|----------------------------------------------------
|----------------------------------------------------
|----------------------------------------------------
|----------------------------------------------------
|--4-------4-------5-------5-------2-------2---------
|----222222--222222--222222--222222--222222--222222--
     -||__|  -||__|  -||__|  -||__|  -||__|  -||__|

|--------------------
|--------------------
|--------------------
|--------------------
|--4-------4---------
|----222222--222222--
     -||__|  -||__|

Fig. 3
|----------------------------------------------------
|----------------------------------------------------
|----------------------------------------------------
|----------------------------------------------------
|----------------------------------------------------
|--0-0000000-0000001-1111115-5555554-4444444-444444--
   |__||__||__||__||__||__||__||__||__||__||__||__|

|--------------------
|--------------------
|--------------------
|--------------------
|--------------------
|--8-8888887-777777--
   |__||__||__||__|

Fig. 4
|------------------------------------
|------------------------------------
|------------------------------------
|------------------------------------
|--------7-9-10-9---------7-9-10-6---
|--0-000------------0-000------------

Fig. 5
||-----------------------------------------------------|
||-----------------------------------------------------|
||-----------------------------------------------------|
||-----------------------------------------------------|
||--5-5555555-5555555-5555556-666666-------------------|
||----------------------------------7-7777777-7777777--|
   |__||__||__||__||__||__||__||__||__||__||__||__||


|------------------||----------|
|------------------||----------|
|------------------||--repeat--|
|------------------||----2x----|
|--------6-666666--||----------|
|--777777----------||----------|

[end of fourth time]
|------------------|
|------------------|
|------------------|
|------------------|
|------------------|
|--7777776-666666--|


Fig. 6
[gtr 1]
|--------------------------------------
|--------------------------------------
|--------------------------------------
|------------------------10-9----------
|------7-6---7-6---7-6--------10-9-----
|--0-0-----0-----0-----0-----------10--

|--------------------------------------
|--------------------------------------
|--------------------------------7tr8--
|------------------------10-9----------
|------7-6---7-6---7-6--------10-------
|--0-0-----0-----0-----0---------------

[gtr 2]
|-----|---------|---------|-----------|
|-----|---------|---------|-----------|
|-----|------3--|--3------|-------10--|
|--2--|--4---3--|--3---3--|--10---10--|
|--2--|--4---1--|--1---3--|--10---*8--|
|--0--|--2------|------1--|--*8-------|

|----------|-----------|---------|---------|-----|
|----------|-----------|---------|---------|-----|
|--10---9--|--12---11--|--4---5--|--9---8--|--7--|
|--10---9--|--12---11--|--4---5--|--9---8--|--7--|
|--*8---7--|--10---*9--|--2---3--|--7---6--|--5--|
|----------|-----------|---------|---------|-----|

Fig. 7
[gtr 1]
|---------------------------------------
|---------------------------------------
|------11-------11-10-------------------
|------*9-------*9-*8-------------------
|---------------------------------------
|--0-00---000-00------0-000-000-000-00--

[gtr 2]
|---------------------------------------
|---------------------------------------
|------11---11--11-10-------------------
|------*9---*9--*9-*8-------------------
|---------------------------------------
|--0-0----------------------------------

Fig. 8
|----------------------------------------------------
|----------------------------------------------------
|----------------------------------------------------
|---------------------------------------4-------4-3--
|--2-222-222-222-221-111-11-------------2-------2-1--
|--------------------------2---3---0-00---000-00-----

|--------------------
|--------------------
|--------------------
|--------------------
|--------------------
|--0-000-000-000-00--

Fig. 9
[gtr 1]
|-----------------------------------
|-----------------------------------
|-----------------------------------
|------------------------5-4--------
|----------------------6-----5-4----
|--0-0-7-6-0-7-6-0-7-6-----------5--


|-----------------------------------
|-----------------------------------
|-----------------------------------
|------------------------5-4---7tr8-
|----------------------6-----5------
|--0-0-7-6-0-7-6-0-7-6--------------

[gtr 2]
|---------------------------------------
|---------------------------------------
|---------------------------------------
|-------------------------10-9----------
|------7-6---7-6---7-6-10------10-9-----
|--0-0-----0-----0------------------10--

|---------------------------------------
|---------------------------------------
|---------------------------------6tr7--
|-------------------------10-9----------
|------7-6---7-6---7-6-10------10-------
|--0-0-----0-----0----------------------


Fig. 10
|------------------------------------
|------------------------------------
|--3---5-----------------------------
|--3---5---6-------------------------
|--1---3---6-------------------------
|----------4-444-443-333-333-333-33--


Fig. 11
|------------------------------------
|------------------------------------
|--3---5-----------------------------
|--3---5---6-------------------------
|--1---3---6-------------------------
|----------4-4444443333333333333333--


Текст, аккорды и табулатура для песни "Necrophilliac", исполняет "Slayer".
Используемые в песне аккорды можно найти в разделе Как брать аккорды. Аккорды для шестиструнной гитары. Другие песни можно найти на нашем сайте, воспользовавшись алфавитным указателем вверху страницы.


 
Ошибка в тексте? Выделите ошибку и нажмите Ctrl+Enter