-/
/ The following is the author's own interpretation of the song, to be used  /
/ for private use and studying                                             /
/-------------------------------------------------------------------------/
                              SLAYER - MR. FREEZE
                        From the Album UNDISPUTED ATTITUDE
                      Copyright 1996 DEF AMERICAN RECORDINGS
                      
                           Version 1.0 - October 1998

Transcription By: [email protected]
                              
For Questions, Comments, Newest Version, or Corrections contact
        [email protected]
        
Check out 's Death/Black Tab Webpage at
        

join the death/black tab emailing list by
        emailing 

.  - palm mute                  /  - slide up to
  - slide down to              ~  - vibrato             
h  - hammer on                  b  - bend 
p  - pull off                        Suffixes for bend    
ph - pinch harmonic                      f - full bend    h - half bend
*  - see comment                         r - release      t - tap bend
X  - percussion mute                     ~ - vibrato bend
@  - slight palm mute           () - ghost note, sustained note

Tuning Eb(Eb,Ab,Db,Gb,Bb,Eb)

RIFF A----------------------------~~ 
|---------------|-------------------| 
|---------------|-------------------|
|---------------|-------------------| 
|---------------|-------------------| 
|---------------|-------------------| 
|-1-1-1-1-0-0-0-|-3-3-3--2---2--1---|
..................................../ 

RIFF A (4X) 

VERSE 

RIFF A (3 1/2X) 

RIFF B---------------- 
|---------|-----------| 
|---------|-----------| 
|---------|-----------|
|---------|-----------| 
|-8-8---8-|-7--6-6--6-| 
|-6-6---6-|-5--4-4--4-|

RIFF B (3X) LAST TIME! 
|----| 
|----| 
|----| 
|----| 
|----| 
|-X-| 

VERSE 

RIFF A (3 1/2X) 

RIFF B (4 X) 

RHY FIG 1.------------------------------------------ 
|----------------|----------------------------------| 
|----------------|----------------------------------| 
|----------------|----------------------------------| 
|----------------|----------------------------------| 
|-6--6---6--7--6-|----------------------------------| 
|-8--8---8--9--8-|-6/8-8-8-8-8-8-8--6/8-8-8-8-8-8-8-| 
.................................................../ 

RHY FIG 1. (2X) 

BRIDGE 

RHY FIG 1. (4 X) 

RHY FIG 2.------- 
|-----------------| 
|-----------------| 
|-----------------| 
|-----------------| 
|-6--6---5--4-4-4-| 
|-4--4---3--2-2-2-| 

RHY FIG 2. (4X) 

RIFF C 
|---------------| 
|---------------| 
|---------------| 
|---------------| 
|-9-9--8--7-7-7-| 
|-7-7--6--5-5-5-| 

RIFF C (4X) 

SOLO (W/RHY FIG 1.) 

TB1 TB1 H----- TB6 ///// 
|-------------|---------------|-------|-------------| 
|-------------|---------------|-------|---11(F)-----| 
|-6---6/7-----|------------5--|-5---0-|-------------| 
|-----------4-|--------4------|-----0-|-------------| 
|-------------|-6-6-6---------|-------|-------------| 
|-------------|---------------|-------|---------11-|

 W/RHY FIG 1. (2X) TB4 1/2 3 2 1 *H 
|----------------------------------| 
|----------------------------------| 
|-12----------------------------5--| 
|----------------------------------| 
|----------------------------------| 
|----------------------------------| 
*BAR AT NORML POS. 

BRIDGE 

W/RHY FIG 1. (4X) 
W/TREM. BAR FX AD LIB 

RHY FIG 2. (4X) 

RIFF C (2X) 

RIFF D 
|-------------------| 
|-------------------| 
|-------------------| 
|-------------------| 
|-11--11---10-9-9-9-| 
|--9--9----8--7-7-7-| 

RIFF E (2X) 
|---------------------| 
|---------------------| 
|---------------------| 
|---------------------| 
|-13-13--12--11-11-11-| 
|-11-11--10--9--9--9--| 

RIFF E (2X) 

OUTRO SOLO (W/ RHY FIG 1. 6X) 

|-6///--8///--9///-|-11///--13///---14///--| 
|------------------|-----------------------| 
|------------------|-----------------------| 
|------------------|-----------------------| 
|------------------|-----------------------| 
|------------------|-----------------------| 

|-17-14-13-17-14-13-14-13-14-17--13----13-13--|
|-----------------------------------16--------| 
|---------------------------------------------| 
|---------------------------------------------| 
|---------------------------------------------| 
|---------------------------------------------| 

|-14-14-17-17-14-13-------------------------| 
|-------------------16-14-13----------------| 
|----------------------------15-13----------|
|----------------------------------16-15-13-| 
|-------------------------------------------| 
|-------------------------------------------| 

PM----- TB1 / H// 
|-------------------|-------|--------------|--------|--------|---------| 
|-------------------|-------|--------------|--------|--------|---------| 
|-------------------|-------|--------------|------0-|-4------|-0-----5-| 
|-13----------------|-------|-16/----------|--------|--------|---------| 
|----16-14-13-------|-------|-13/---13--13-|--------|--------|----5----| 
|-------------15///-|-15///-|--------------|-0-----|--------|---------| 

//////////// 
|---------------|-------|------|------------|------|-------------|
|---------------|-------|------|------------|------|-------------|
|-8-------/12-/-|-/20---|-8///-|-9///--10///|-9///-|-10///-11///-| 
|---------------|-------|-6///-|-7///--8///-|-7///-|--8///--9///-| 
|---------------|-------|------|------------|------|-------------| 
|---------------|-------|------|------------|------|-------------| 

|-------|--------------|-----|--------------|-------| 
|-------|--------------|-14--|-15--16-16-16-|-(16)-| 
|-10///-|-11///--12///-|-13--|-14--15-15-15-|-(15)-| 
|--8///-|--9///--10///-|-11--|-12--13-13-13-|-(13)-| 
|-------|--------------|-----|--------------|-------| 
|-------|--------------|-----|--------------|-------| 

TB=TRMBLE BAR 
H=HARMONIC 
///=TREMOLO PICk 
//=VIBRATO 
PM OR .=PALM MUTE 
X=PIC SLIDE 

Check out 's Death/Black Tab Webpage at
        


Текст, аккорды и табулатура для песни "Mr Freeze", исполняет "Slayer".
Используемые в песне аккорды можно найти в разделе Как брать аккорды. Аккорды для шестиструнной гитары. Другие песни можно найти на нашем сайте, воспользовавшись алфавитным указателем вверху страницы.


 
Ошибка в тексте? Выделите ошибку и нажмите Ctrl+Enter