metal storm/face the slayer (solo)
album: show no mercy
slayer

tabbed by Rudy Guzman


e:-18b-18b~~--18b-18b~~~-|
B:-----------------------|
G:-----------------------|
D:-----------------------|
A:-----------------------|
E:-----------------------|


e:15-15-17-15-18-15-17-18-15h16h18p16p15-15-17-18-17-15-16-18-17-15-etc-|
B:----------------------------------------------------------------------|
G:----------------------------------------------------------------------|
D:----------------------------------------------------------------------|
A:----------------------------------------------------------------------|
E:----------------------------------------------------------------------|



e:----------------------------------------------------------|
B:-18b-15-16-18---------------------------------------------|
G:--------------17-14-15-17----------------------17-14-15-17|
D:--------------------------17-14-15-17-14-15-17------------|
A:----------------------------------------------------------|
E:----------------------------------------------------------|


e:---------------15-16-18-18b-------------------------------------------|
B:15-16-15-16-18--------------------------------------------------------|
G:----------------------------------------------------------------------|
D:------------------------------7-7-7-7-9-9-9-9-10-10-10-10-12-12-12-12-|
A:----------------------------------------------------------------------|
E:----------------------------------------------------------------------|



e:-----------------------------------------------------------|
B:-----------------------------------------------------------|
G:-----------------------------------------------------14-16-|
D:---------9-9-9-9-10-10-10-12-12-12/14-14-15-15-17-17-------|
A:12-12-12---------------------------------------------------|
E:-----------------------------------------------------------|


  play 4 times       play 6 times
e:-14-14-15-14-17-|14-17-14-17--|
B:----------------|-------------|
G:----------------|-------------|
D:----------------|-------------|
A:----------------|-------------|
E:----------------|-------------|

e:18-21-18-21-18-21-18-22-18-21-----|
B:------------------------------21-|
G:----------------------------------|
D:----------------------------------|
A:----------------------------------|
E:----------------------------------|


Текст, аккорды и табулатура для песни "Metal Storm Face", исполняет "Slayer".
Используемые в песне аккорды можно найти в разделе Как брать аккорды. Аккорды для шестиструнной гитары. Другие песни можно найти на нашем сайте, воспользовавшись алфавитным указателем вверху страницы.


 
Ошибка в тексте? Выделите ошибку и нажмите Ctrl+Enter