LOVE TO HATE
ALBUM: DIABOLUS IN MUSICA
SLAYER

TABBED BY RUDY GUZMAN

D TUNNING
   
                            enter my mind can you stop the rage...
          play 4 times       play 8 times
eb:|-----------------------|----------------------|
Bb:|-----------------------|----------------------|
Gb:|-----------------------|----------------------|
Db:|-----------------------|----------------------|
Ab:|-15-------7-6-6-6-6-6-|-15------7-6-6-6-6-6-|
 D:|-15--3h4--7-6-6-6-6-6-|-15--3h4-7-6-6-6-6-6-|


you love to hate me...
gt1 play 4 times     gt2
:-------------------|--------------------|
:-------------------|--------------------|
:-------------------|--------------------|
:-------------------|-3-3-3-2-3/6-6-6-6--|
:-------------------|-1-1-1-0-1/4-4-4-4--|
:-3-3-3-2-3/6-6-6-6-|--------------------|


take what i want primordial ground...
 play 8 times
:------------------------| 
:------------------------|
:------------------------|
:------------------------|
:-15-------7-6-6-6-6-6--|
:-15--3h4--7-6-6-6-6-6--|


play 2 times
:-------------------------------|
:-------------------------------|
:-------------------------------|
:------8-7-------6-5------------|
:--5-6-----8-7-------6-5-4------|
:0-------------0------------7-6-|


absolute reign...       you love to hate me...
  play 8 times          gt1  play 4 times                                                                                                           
:----------------------|-------------------|
:----------------------|-------------------|
:----------------------|-------------------|
:----------------------|-------------------|
:15-------7-6-6-6-6-6-|-------------------|
:15--3h4--7-6-6-6-6-6-|-3-3-3-2-3/6-6-6-6-|


                        gt2
:----------------------|-------------------|
:----------------------|-------------------|
:----------------------|-------------------|
:----------------------|-3-3-3-2-3-6-6-6-6-|
:----------------------|-1-1-1-0-1/4-4-4-4-|
:----------------------|-------------------|


  
solo
  bend slowly            
:-------------------------------------------------------------------|
:-20b---------20b-20b-20b-20b~~---20b--20--------------------------|
:-19b---------19b-19b-19b-19b~~---19b--19--------------------------|
:--------------------------------------------10-9-------------------|
:--------------------------------------------------12-11--8-7-------|
:-------------------------------------------------------------10-9-|


            play 5 times
:----------|-------------|-------------------|
:----------|-------------|-------------------|
:-14-13-13-|----13-14-16-|-14-13----13-14-13-|
:----------|-15----------|-------15----------|
:----------|-------------|-------------------|
:----------|-------------|-------------------|



:---------------------------------------------12-13-12-13-15-13-12-|
:------------------------------------12-13-15----------------------|
:---13-14-16-14-13----13-14-16-14-13-------------------------------|
:15----------------15----------------------------------------------|
:------------------------------------------------------------------|
:------------------------------------------------------------------|



:----12-13-15/20-19~~~------------------------|
:-15---------------------13b-13b-13b-13b-13--|
:------------------------12b-12b-12b-12b-12--|
:---------------------------------------------|
:---------------------------------------------|
:---------------------------------------------|


        bar bar   note: i'm not sure about this.       pick slide
:-----------------------------------------------------------------|
:-12b-------------12-13-x-14-15-x-16-17-19-x-20-21-22-------------|
:-12b-------------12-13-x-14-15-x-16-17-19-x-20-21-22-------------|
:------------0-------------------------------------------x-------|
:--------0-----------------------------------------------x-------|
:-----------------------------------------------------------------|

enter my mind can you... you love to hate me..
   play 8 times          gt1   play 4 times
:-----------------------*-------------------|
:-----------------------*-------------------|
:-----------------------*-------------------|
:-----------------------*-------------------|
:-15-------7-6-6-6-6-6-*-------------------|
:-15--3h4--7-6-6-6-6-6-*-3-3-3-2-3/6-6-6-6-|


                        desensitize the world
                        gt2
                        :-------------------|
                        :-------------------|
                        :-------------------|
                        :-3-3-3-2-3/6-6-6-6-|
                        :-1-1-1-0-1/4-4-4-4-|
                        :-------------------|


gt1     play 3 times
:-------------------------------------------|
:-------------------------------------------|
:-------------------------------------------|
:-------8-7--------6-5----------------------|
:--5-6------8-7--------6-5-4----------------|
:0--------------0------------7-6------------|


gt1
:----------------------------------------------------|
:----------------------------------------------------|
:----------------------------------------------------|
:----------------------------------------------------|
:-0--------------------------------------------------|
:-0--------------------------------------------------|


gt2
:------------------------------------------------------|
:------------------------------------------------------|
:------7-6----------6-5--------------------------------|
:-----------7-6----------6-5-4-------------------------|
:--5-6--------------------------5-4--------------------|
:0---------------0-------------------------------------|


:-----------------------------|
:-----------------------------|
:-----------------------------|
:-----------------------------|
:-0---------------------------|
:-0---------------------------|


Текст, аккорды и табулатура для песни "Love To Hate", исполняет "Slayer".
Используемые в песне аккорды можно найти в разделе Как брать аккорды. Аккорды для шестиструнной гитары. Другие песни можно найти на нашем сайте, воспользовавшись алфавитным указателем вверху страницы.


 
Ошибка в тексте? Выделите ошибку и нажмите Ctrl+Enter