=================================================================================================

Song: Kill Again
Artist: Slayer
Album: Hell Awaits (1985)

Tabbed by Chris Rezendes ([email protected])

Tuning: Eb (half step down)

Notation Key
v: vibrato
t: tremolo bar
^: bend
.: palm mute
~: trill
p: pull-off
h: hammer-on
x: ghost note
/: slide up
: slide down

Comments: This is a kickass song.  It's crazy, so I put it together for you on the bottom.  If you spot any mistakes, feel free to e-mail me.  It should be noted that I got the original idea of the song from Gabriel Hidalgo's tab.

=================================================================================================

Fig. 1
e|---------------------------------------------------------------
B|---------------------------------------------------------------
G|---------------------------------------------------------------
D|---------------------------------------------------------------
A|--2----3-2------2h3p2p0----------------------------------------
E|----00-----0000------------------------------------------------

Fig. 2
e|---------------------------------------------------------------
B|---------------------------------------------------------------
G|---------------------------------------------------------------
D|--4----5----3--------------------------------------------------
A|--2----3----1--------------------------------------------------
E|----00---00---00--3-2-1-0--------------------------------------
                    . . . .

Fig. 3                 end 1     end 2
e|------------------|---------|---------------------------------------
B|------------------|---------|---------------------------------------
G|------------------|---------|---------------------------------------
D|------------------|---------|---------------------------------------
A|--2222-2222-2222--|--22243--|-22223---------------------------------
E|--0000-0000-0000--|--00021--|-00001---------------------------------

Riff 1
Gtr. 1
e|---------------------------------------------------------------
B|---------------------------------------------------------------
G|---------------------------------------------------------------
D|---------------------------------------------------------------
A|--444-555-444-777-444-555-444444-------------------------------
E|---------------------------------------------------------------

Gtr. 2
e|---------------------------------------------------------------
B|---------------------------------------------------------------
G|---------------------------------------------------------------
D|--444-555-444-777-444-555-444444-------------------------------
A|---------------------------------------------------------------
E|---------------------------------------------------------------

Fig. 4
e|---------------------------------------------------------------
B|---------------------------------------------------------------
G|---------------------------------------------------------------
D|--6-5----------------------------------------------------------
A|--4-3-7-6------------------------------------------------------
E|------5-4------------------------------------------------------

Riff 1a
e|---------------------------------------------------------------
B|---------------------------------------------------------------
G|---------------------------------------------------------------
D|---------------------------------------------------------------
A|---------------------------------------------------------------
E|--111-222-111-444-111-222-111111-------------------------------

Riff 2
e|---------------------------------------------------------------
B|---------------------------------------------------------------
G|---------------------------------------------------------------
D|--------------------------333-222------------------------------
A|--444-555---------222-333--------------------------------------
E|----------333-444----------------------------------------------

Riff 3
e|------------------------------------|----------------------------------------
B|------------------------------------|----------------------------------------
G|------------------------------------|----------------------------------------
D|------------------------------------|----------------------------------------
A|------7-----8-----7-----8-----10-8--|------7-----8-----7-----8-----6v--------
E|--000---000---000---000---000-------|--000---000---000---000---000-----------


Riff 3b
e|------------------------------------|----------------------------------------------
B|------------------------------------|----------------------------------------------
G|------------------------------------|----------------------------------------------
D|------------------------------------|-----------------------------------8----------
A|------7-----8-----7-----8-----10-8--|-----------------------------------6----------
E|--000---000---000---000---000-------|--0-0-0-0-0-0-0-0-0-0-0-0-0-0-0-0-------------

Riff 4 (chorus)
e|-------------------------------------------------------|
B|-------------------------------------------------------|
G|-------------------------------------------------------|
D|-------------------------------------------------------|
A|-------------------------2222-111111111111111111-2222--|
E|---222222222222222222222-------------------------------|

e|------------------------------------------------------|
B|------------------------------------------------------|
G|------------------------------------------------------|
D|---------------------------------------------------3--|
A|-------------------------2222-11111111111111111111-1--|
E|--2222222222222222222222------------------------------|

Fig. 5
e|-------------------|-------------------|-------------------|------------------------
B|-------------------|-------------------|-------------------|------------------------
G|-------------------|-------------------|-------------------|------------------------
D|------3---4---3----|------6---7---6----|------3---4---3----|------------------------
A|------1---2---1----|------4---5---4----|------1---2---1----|------------2-1---------
E|--0-0---0---0---0--|--0-0---0---0---0--|--0-0---0---0---0--|--3-2-0-2-3-----2-------

Fig. 5b
e|-------------------|-------------------|-------------------|---------------
B|-------------------|-------------------|-------------------|---------------
G|-------------------|-------------------|-------------------|---------------
D|------3---4---3----|------6---7---6----|------3---4---3----|---------------
A|------1---2---1----|------4---5---4----|------1---2---1----|--5-5----------
E|--0-0---0---0---0--|--0-0---0---0---0--|--0-0---0---0---0--|--3-3----------

Riff 5
e|-------------------------------------|-------------------------------------
B|-------------------------------------|-------------------------------------
G|-------------------------------------|-------------------------------------
D|--777777-888777-777777-111111101010--|--777777-888777-777777-444888--------
A|--555555-666555-555555--9-9-9-8-8-8--|--555555-666555-555555-222666--------
E|-------------------------------------|-------------------------------------

Riff 5b
e|-------------------------------------|-------------------------------------
B|-------------------------------------|-------------------------------------
G|-------------------------------------|-------------------------------------
D|-------------------------------------|-------------------------------------
A|--888888-999888-888888-121212111111--|--888888-999888-888888-555999--------
E|--666666-777666-666666-101010-9-9-9--|--666666-777666-666666-333777--------

Riff 6
e|-----------------------------------------------------------------------------------------------
B|-----------------------------------------------------------------------------------------------
G|-----------------------------------------------------------------------------------------------
D|-----------------------------------------------------------------------------------------------
A|-----------------------------------------------------------------111111111111111111111---------
E|--0000000000000000000-3333333333333333333-0000000000000000000000-------------------------------


Order of play

Fig. 1 x4
Fig. 2 x4
Fig. 3 x2
Riff 1, gtr. 1 x2
Riff 1, both guitars x1 and a half
Fig. 4 x1
Riff 1a x 3 and a half
Fig. 3 x2
Riff 2 x4
Fig. 3 x2
Riff 3 x1
Riff 3b x1
Riff 3 x6
Riff 4 x1
Fig. 5 x2
Fig. 5b x1
Riff 3 x4
Riff 4 x1
Fig. 5 x2
Fig. 5b x1
Riff 5 x2
Riff 5b x2
Riff 5 x2
Riff 5b x2
Riff 6 x1
Riff 2 x4
Riff 6 x1
Riff 3 x6
Riff 4 x1
Fig. 5 x3
Fig. 5b x1


Текст, аккорды и табулатура для песни "Kill Again", исполняет "Slayer".
Используемые в песне аккорды можно найти в разделе Как брать аккорды. Аккорды для шестиструнной гитары. Другие песни можно найти на нашем сайте, воспользовавшись алфавитным указателем вверху страницы.


 
Ошибка в тексте? Выделите ошибку и нажмите Ctrl+Enter