Jesus Saves by SLAYER   
From:[email protected]

Intro
|----------------------------------------------
|----------------------------------------------
|----------------------------------------------
|-------10/9-10/9----10/9-10/9-----10/9---12---
|--------8/7--8/7-----8/7--8/7------8/7---10---
|--0--0------------0-------------0-------------
   .  .            .             .  
|---------------------------------------------
|---------------------------------------------
|---------------------------------------------
|-------10/9-10/9-----------------------------
|--------8/7--8/7---------8--7----------------
|--0--0------------0--0---------6--5---8--7---
   .  .            .  .   .  .  .  .   .  .

|----------------------------------------------
|----------------------------------------------
|----------------------------------------------
|-------10/9-10/9----10/9-10/9-----10/9---12---
|--------8/7--8/7-----8/7--8/7------8/7---10---
|--0--0------------0-------------0-------------
   .  .            .             .  

|----------------------------------------
|----------------------------------------
|----------------------------------------
|-------10/9-10/9------------------------
|--------8/7--8/7-------------7-------5--
|--0--0------------0--0----0--5--0-0--3--
   .  .            .  .          . .

|---------------------------------------------------------------
|---------------------------------------------------------------
|---------------------------------------------------------------
|---------------------------------------------------------------
|---------------------------------------------------------------
|-0-000-0000000-0000000-0000000-0000000-0000000-0000000-0000000-
  . ... ....... ....... ....... ....... ....... ....... .......

|-----------------------------------------------
|-----------------------------------------------
|-----------------------------------------------
|--7-7-7--8--8-8-8---11-11-11----10--10-10-10---
|--5-5-5--6--6-6-6----9--9--9-----8---8--8--8---
|-----------------------------------------------

|----------------------------  
|----------------------------  
|----------------------------
|----------------------------
|--------8-7----8-7---11-10--
|--0--0------0---------------
   .  .      .

 You go to ...
|----------------------------------------
|----------------------------------------
|----------------------------------------
|----------------------------------------
|-------------5---------7---------5-8-7--
|--0-000000---3--00000--5--00000--3-6-5--
                                  . .
  Chorus
|---------------------------------------
|---------------------------------------
|---------------------------------------
|---------------------------------------
|----------------------------------7-8--
|---0000-3333-0000-3333-0000-3333--5-6--

  Rhytm for solo 1
|------------------------------------------
|------------------------------------------
|------------------------------------------
|------------------------------------------
|------------------------------------------
|--0000--3--0000--5--0000--3--66666--55555-

  Rhytm for solo 2
|-------------------------------------------------
|-------------------------------------------------
|-------------------------------------------------
|-------------------------------------------------
|-------------------------------------------------
|-33333-66666-22222-55555-33333-66666-22222-88888-

@SONG: Jesus Saves
(Lyrics - King, Music - Hanneman, King)^E


You go to the church, you kiss the cross
You will be saved at any cost
You have your own reality
Christianity
You spend your life just kissing ass
A trait that's grown as time has passed
You think the world will end today
You praise the Lord, it's all you say

Jesus saves, listen to you pray
You think you'll see the pearly gates
When death takes you away

For all respect you cannot lust
In an invisible man you place your trust
Indirect dependency
Eternal attempt at amnesty
He will decide who lives and dies
Depopulate Satanas rise
You will be an accessory
Irreverence and blasphemy

(LEAD: KING)

Jesus saves, no need to pray
The gates of pearl have turned to gold
It seems you've lost your way

(LEAD: HANNEMAN)

Jesus saves, no words of praise
No promised land to take you to
There is no other way

(LEAD: KING)


Текст, аккорды и табулатура для песни "Jesus Saves", исполняет "Slayer".
Используемые в песне аккорды можно найти в разделе Как брать аккорды. Аккорды для шестиструнной гитары. Другие песни можно найти на нашем сайте, воспользовавшись алфавитным указателем вверху страницы.


 
Ошибка в тексте? Выделите ошибку и нажмите Ctrl+Enter