-/
/ The following is the author's own interpretation of the song, to be used  /
/ for private use and studying                                             /
/-------------------------------------------------------------------------/
                          SLAYER - I'M GONNA BE YOUR GOD
                        From the Album UNDISPUTED ATTITUDE
                      Copyright 1996 DEF AMERICAN RECORDINGS
                      
                           Version 1.0 - October 1998

Transcription By: David Lichter
                              
For Questions, Comments, Newest Version, or Corrections contact
        David at: [email protected]
        
Check out 's Death/Black Tab Webpage at
        

join the death/black tab emailing list by
        emailing 

.  - palm mute                  /  - slide up to
  - slide down to              ~  - vibrato             
h  - hammer on                  b  - bend 
p  - pull off                        Suffixes for bend    
ph - pinch harmonic                      f - full bend    h - half bend
*  - see comment                         r - release      t - tap bend
X  - percussion mute                     ~ - vibrato bend
@  - slight palm mute           () - ghost note, sustained note

Tuning Eb(Eb,Ab,Db,Gb,Bb,Eb)

Intro:  4x
Eb|----------------------------------------------|
Ab|----------------------------------------------|
Db|----------------------------------------------|
Gb|-12-12-12-12--11-11-11-11--9-9-9-9-9-9--------|
Bb|-10-10-10-10--9--9--9--9---7-7-7-7-7-7--------|
Eb|----------------------------------------------|

Verse:   
             
Palm Mute
         I'm all jacked up  I want you here...
Eb|----------------------------------------------|
Ab|----------------------------------------------|
Db|----------------------------------------------|
Gb|----------------------------------------------|
Bb|-5-5-5-5--4-4-4-4--2-2-2-2-2-2----------------|
Eb|-3-3-3-3--2-2-2-2--0-0-0-0-0-0----------------|


Chorus:
        
     Now Iґm gonna be your god   Now Iґm gonna...
Eb|----------------------------------------------|
Ab|----------------------------------------------|
Db|----------------------------------------------|
Gb|-12-12-12-12--11-11-11-11--9-9-9-9-9-9--------|
Bb|-10-10-10-10--9--9--9--9---7-7-7-7-7-7--------|
Eb|----------------------------------------------|

Eb|----------------------------------------------|
Ab|----------------------------------------------|
Db|----------------------------------------------|
Gb|-12-9-7-4-5-5-5-5-5-5-5-2---------------------|
Bb|-10-7-5-2-3-3-3-3-3-3-3-0---------------------|
Eb|----------------------------------------------|

   4x
Eb|----------------------------------------------|
Ab|----------------------------------------------|
Db|----------------------------------------------|
Gb|----------------------------------------------|
Bb|-5-5-5-5--4-4-4-4--2-2-2-2-2-2----------------|
Eb|-3-3-3-3--2-2-2-2--0-0-0-0-0-0----------------|


Verse


Chorus 3x

Eb|----------------------------------------------|
Ab|----------------------------------------------|
Db|----------------------------------------------|
Gb|-12-9-7-4-5-5-5-5-5-5-5-----------------------|
Bb|-10-7-5-2-3-3-3-3-3-3-3-----------------------|
Eb|----------------------------------------------|


Solo


Verse  Only Bass  


Chorus 3x


Eb|----------------------------------------------|
Ab|----------------------------------------------|
Db|----------------------------------------------|
Gb|-12-9-7-4-5-5-5-5-5-5-5-2---------------------|
Bb|-10-7-5-2-3-3-3-3-3-3-3-0---------------------|
Eb|----------------------------------------------|


LYRICS:



I`M GONNA BE YOUR GOD

I'm all jacked up
I want you here
In my room I want you dear

And now it's time to bury my face
Between your legs
With my tongue in that special place

Now I'm gonna be your God
Now I'm gonna be your God
I'm gonna be your God

Now I'm ready to close my eyes
To feel that warm deep throat action
Now I'm ready to make you cum
And fuck like dogs all night long

Now I'm gonna be your God
Now I'm gonna be your God
I'm gonna be your fucking God

I'm all jacked up
I want you here
In my room
I want you dear

Now I'm ready to make you cum
And fuck like dogs all night long

I'm gonna be your God
I'm gonna be your God
I'm gonna be your fucking God

Check out 's Death/Black Tab Webpage at
        


Текст, аккорды и табулатура для песни "Im Gonna Be Your God", исполняет "Slayer".
Используемые в песне аккорды можно найти в разделе Как брать аккорды. Аккорды для шестиструнной гитары. Другие песни можно найти на нашем сайте, воспользовавшись алфавитным указателем вверху страницы.


 
Ошибка в тексте? Выделите ошибку и нажмите Ctrl+Enter