Fig. 1
----------------------
----------------------
|--7---6-----------5---4-------3--
|--7---6---7---6---5---4---5---3--
|--5---4---7---6---3---2---5---1--
|----------5---4-----------3------


Fig. 2
---------------------------
---------------------------
---------------------------
---------------------------
|------3p2p0-------------3p2p0---------
|--2222------222222222222------5-2-3-5-
   |__|      |__||__||__|

---------------------------
---------------------------
---------------------------
---------------------------
|------3p2p0-------------3p2p0-----3---
|--2222------222222222222------22223---
   |__|      |__||__||__|      |__|


Fig. 3
--------------------------------------
--------------------------------------
--------------------------------------
--------------------------------------
|------5p1p0-------------5p1p0-0-2-3--------5p1p0-
|--0000------000000000000---------------0000------
   |__|      |__||__||__|


------------------------------------------
------------------------------------------
------------------------------------------
---------2---1----------------------------
---5p1p0---3----------5p1p0---------------
|--000000000000---------------0000------000000000000--
   |__||__||__|               |__|      |__||__||__|


------------------------------------------
------------------------------------------
------------------------------------------
--------------------------------------8---
|--5p1p0-0-2-3--------5p1p0-------------5p1p0-----8---
------0000------000000000000------00006---
                  |__|      |__||__||__|      |__|



Fig. 4
--------------------------------------------
--------------------------------------------
--------------------------------------------
--------------------------------------------
|------6p5p3-------------6p5p3-----------6p5p3----------
|--5555------555555555555------8-5-6-5555------55555555-
   |__|      |__||__||__|


---------------------------------------------
---------------------------------------------
---------------------------------------------
---------------------------------------------
|------6p5p3-----6-------6p5p3-------------6p5p3---------
|--5555------55556---5555------555555555555------8-5-6-8-
   |__|      |__|    |__|      |__||__||__|


-------------------------
-------------------------
---------7---6-------5---
---------7---6---7---5---
|------6p5p3---------5---4---7---3---
|--5555------55555555--------5-------
   |__|      |__||__|



Fig. 5
-------------------------------------
-------------------------------------
-------------------------------------
-------------------------------------
|------10p9p7-9p8p7---------10p9p7-9p8p7-7-9-10--
|--0000-------------00000000---------------------
   |__|             |__||__|


--------------------------------
--------------------------------
--------------------------------
-------------------------8---7--
|--10p9p7-9p8p7---------10p9p7-9p8p7---9----
----00000000--------------------


-------------------------------------
-------------------------------------
-------------------------------------
-------------------------------------
|------10p9p7-9p8p7---------10p9p7-9p8p7-7-9-10--
|--0000-------------00000000---------------------
   |__|             |__||__|


---------------------------------
---------------------------------
-----------------------------5---
-----------------------------5---
|--10p9p7-9p8p7---------10p9p7-9p8p7-----3---
----00000000-------------0000----



Fig. 6
------------------------------------------
------------------------------------------
------------------------------------------
------------------------------------------
|--2-------5---------4-5------------------------------
|--2-222222--22222222----2222222222220000000000000000-
       |__|  |__||__|    |__||__||__||__||__||__||__|


---------
---------
---------
---------
|----------4-5-------
|--33333333----3333--
   |__||__|


Fig. 7
----------------------------------------
----------------------------------------
----------------------------------------
----------------------------------------
----------------------------------------
|--555555558-5555557-8-5555555555553333333333333333-
   |__||__|  |__|      |__||__||__||__||__||__||__|


------------------------------------------
------------------------------------------
------------------------------------------
------------------------------------------
------------------------------------------
|--6666666666666666-----------------------------
   |__||__||__||__|



Fig. 8
---------------------
---------------------
---------------------
|--4-------4-------2-------5-----
|--4-------4-------2-------5-----
|--2---2-2-2---0-0-0---0-0-3-0-0-



Fig. 9
-----------------------|
-----------------------|
-----------------------|
|----3-----------------------------|  --Three Times--
|------4---5-4---4-3-------3-2---1-|
|--2-----2-----2-----0-2-3-----3---|


-----------------------|
-----------------------|
-----------------------|
|----3-----------------------------|
|------4---5-4-----3-2---2-1-------|
|--2-----2-----0-2-----3-----2-0-1-|


Текст, аккорды и табулатура для песни "Hallowed Point", исполняет "Slayer".
Используемые в песне аккорды можно найти в разделе Как брать аккорды. Аккорды для шестиструнной гитары. Другие песни можно найти на нашем сайте, воспользовавшись алфавитным указателем вверху страницы.


 
Ошибка в тексте? Выделите ошибку и нажмите Ctrl+Enter