Intro:
------
Riff 1: (Play twice)
--------------------


    . . .   . .                 .    . . .   . .                 .
-------------------------------||
-------------------------------||
-------------------------------||
||5-------5-----5---5-5-5-5-5-9---|8-------8-----8---8-8-8-8-8-7---||
||7-------7-----7---7-7-7-7-7-7---|7-------7-----7---7-7-7-7-7-0---||
||--0-0-0---0-0-----------------0-|--0-0-0---0-0-----------------0-||



Variation on Riff 1: (Play twice)
---------------------------------

    . . .   .                   .    . .     . .                 .
-------------------------------||
-------------------------------||
-------------------------------||
||5-------5---5-5---5-5-5-5-5-9---|8-----8-8-----8---8-8-8-8-8-7---||
||7-------7---7-7---7-7-7-7-7-7---|7-----7-7-----7---7-7-7-7-7-0---||
||--0-0-0---0-------------------0-|--0-0-----0-0-----------------0-||



Riff 2: (Play 4 times)
----------------------


  PM--------------------------------|
  __3__ __3__ __3__ __3__ __3__ __3__
|||-|-|-|-|-|-|-|-|-|-|-|-|-|-|-|-|-|---------|
----------------------|
--------------------4-|
--------------5-5-5-4-|
--------------7-7-7-7-|
||0-0-0-0-0-0-0-0-0-0-0-0-0-0-0-0-0-0---------|


  PM--------------------------------|
  __3__ __3__ __3__ __3__ __3__ __3__
 ||-|-|-|-|-|-|-|-|-|-|-|-|-|-|-|-|-|---------||
 ---------------------------------||
 ---------------------------------||
 -------------------------8-8-8-7-||
 -------------------------7-7-7-0-||
 |0-0-0-0-0-0-0-0-0-0-0-0-0-0-0-0-0-0---------||




Interlude:
----------


                                     ~~~~~~                             ~~~~
Lead:   -------------------------------|
        -------------------------------|
        -------------------------------|
        ||--------9---------------9h10----|--------9---------------9h10-9--|
        ||----7---------------7-----------|----7---------------7-----------|
        ||0-------------0---0-------------|0-------------0---0-------------|
        ||                                |                                |
        ||    (Long slide)                |                                |
        -------------------------------|
        -------------------------------|
Rhythm: -------------------------------|
        ||----9-----------------------------------------------|
        ||----7----------------------------------------------|
        ------------------------------|


                                    ~~~~~~                            ~~~~~
        ------------------------------------------|
        ------------------------------------------|
        -------------9--------------------9-------|
        |--------9-----------------10----|--------9-------------9---109---|
        |----7---------------7-----------|----7---------------7-----------|
        |0-------------0---0-------------|0-------------0---0-------------|
        |                                |                                |
        |                                |                                |
        ------------------------------------------|
        ------------------------------------------|
        ------------------------------------------|
        |2-------------------------------|2-------------------------------|
        |2-------------------------------|2-------------------------------|
        |0-------------------------------|0-------------------------------|


                                    ~~~~~~~                           ~~~~~
        ------------------------------------------|
        ------------------------------------------|
        -------------9--------------------9-------|
        |--------9-----------------10----|--------9-----------------109---|
        |----7---------------7-----------|----7---------------7-----------|
        |0-------------0---0-------------|0-------------0---0-------------|
        |                                |                                |
        |.     . .       .     . . .     |.     . .       .     . . . .   |
        ------------------------------------------|
        ------------------------------------------|
        ------------------------------------------|
        ------------------------------------------|
        |2-----2-2-------2-----2-2-2-----|2-----2-2-------2-----2-2-2-2---|
        |0-----0-0-------0-----0-0-0-----|0-----0-0-------0-----0-0-0-0---|



                                    ~~~~~~                            ~~~~~
        ------------------------------------------||
        ------------------------------------------||
        -------------9--------------------9-------||
        |--------9-----------------10----|--------9-------------9---109---||
        |----7---------------7-----------|----7---------------7-----------||
        |0-------------0---0-------------|0-------------0---0-------------||
        |                                |                                ||
        |                                |                                ||
        |.     . .       .     . . .     |.     . .       .     . . . .   ||
        ------------------------------------------||
        ------------------------------------------||
        ------------------------------------------||
        ------------------------------------------||
        |2-----2-2-------2-----2-2-2-----|2-----2-2-------2-----2-2-2-2---||
        |0-----0-0-------0-----0-0-0-----|0-----0-0-------0-----0-0-0-0---||



Spooky clean part: (Play 4 times)
---------------------------------

        ----------|
        ----------|
Clean:  ----------|
        ||--------5-----------8-----7-----|
        ||----7---------6-----------------|
        ||0-------------------------------|
        ||                                |                                :
        ||                                |                                |
        ||(First time only)               |(Last time only)                |
        -------------------------------|
        -------------------------------|
Rhythm: -------------------------------|
        ||9---------------------------------------------------|
        ||7--------------------------------------------------|
        ---------|0-------------------------------|
          (Long slide)                     (Gradually fade in...)


Verse:
------


RIff 2: (Play 4 times)
----------------------


RIff 3: (Play twice)
--------------------


  PM--------|   PM------------------------|
  __3__ __3__ __3__ __3__ __3__ __3__ __3__ __3__
|||-|-|-|-|-|-|-|-|-|-|-|-|-|-|-|-|-|-|-|-|-|-|-|-|
--------------------------|
--------------------------|
--------------------------|
|-4-----------------------------------|
||1-1-1-1-1-1-2-1-1-1-1-1-1-1-1-1-1-1-1-1-1-3-5-6-|


  PM--------------------------------|  _______ ________
  __3__ __3__ __3__ __3__ __3__ __3__  1.    | 2.    ||
 ||-|-|-|-|-|-|-|-|-|-|-|-|-|-|-|-|-|- ------| ------||
 ------------------------- ------| ------||
 ------------------------- ------| ------||
 ------------------------- ------| ------||
 ------------------------- 6-5-4-| 9-8-7-||
 |1-1-1-1-1-1-1-1-1-1-1-1-1-1-1-1-1-1- 4-3-2-| 7-6-5-||



Riff 4: (Play twice)
--------------------


      PM---------|     PM---------|
|----------|
|----------|
|----------|
|----------|
||/6--------------|/6--------------|
||/4--222222222222|/4--222222222222|

                              _______ ________
      PM---------|     PM-|   1.    | 2.    ||
 -----|---------- ------| ------||
 -----|---------- ------| ------||
 -----|---------- ------| ------||
 -----|---------- ------| ------||
 |/7--------------|/8-------- 9-8-7-| 5-4-3-||
 |/5--333333333333|/6--4444-- 7-6-5-| 3-2-1-||



RIff 2: (Play 4 times)
----------------------


Riff 5: (Play 9 times)
----------------------
                                                                   __________
    PM--------------|       PM-----------|                         |5.9.only|
-------------------------------|--------|
-------------------------------|--------|
-------------------------------|--------|
||2----------------------------------------------------|--------|
||2-------------------9---8-------|--------10--------------5-------|--------|
||0-0-0-0-0-0-0-0-0-0-7---6-0-0-0-|0-0-0-0-8-------7~~~~~~~3-------|2~~~~~~~|



Spooky clean part: (Play 8 times)
---------------------------------


RIff 2: (Play 4 times)
----------------------


RIff 3: (Play twice)
--------------------


Riff 4: (Play twice)
--------------------


Variation on riff 4: (Play twice)
--------------------


      PM---------|     PM---------|
       _3_     _3_      _3_     _3_
||-----|||-----||||-----|||-----||||
|----------|
|----------|
|----------|
||/6-------4------|/6------4-------|
||/4--2222-2---222|/4--22222----222|

                              _______ ________
      PM---------|     PM-|   1.    | 2.    ||
       _3_     _3_      _3_
 |-----|||-----||||-----|||-- ------| ------||
 -----|---------- ------| ------||
 -----|---------- ------| ------||
 -----|---------- ------| ------||
 |/7--------------|/8-------- 9-8-7-| 5-4-3-||
 |/5--3333-----333|/6--4444-- 7-6-5-| 3-2-1-||



End: (Play 4 times)
-------------------


        ----------|
        ----------|
Clean:  ----------|
        ||--------5-----------8-----7-----|
        ||----7---------6-----------------|
        ||0-------------------------------|
        ||                                |
        ||________________________________|_________________________________
        ||1.2.3.                          |4.                              |
        -------------------------------|
        -------------------------------|
Rhythm: -------------------------------|
        -------------3-----2-----------|
        ||2-------------------------------|2-------------1-----0-----2-----|
        ||0-------------------------------|0-------------------------0-----|


Текст, аккорды и табулатура для песни "Divine Intervention", исполняет "Slayer".
Используемые в песне аккорды можно найти в разделе Как брать аккорды. Аккорды для шестиструнной гитары. Другие песни можно найти на нашем сайте, воспользовавшись алфавитным указателем вверху страницы.


 
Ошибка в тексте? Выделите ошибку и нажмите Ctrl+Enter