DISINTEGRATION/FREE MONEY
SLAYER.
Taken from the album UNDISPUTED ATTITUDE.
E-mail me at [email protected]

Intro: (Fade in)
                  Disintegration you bastard
E--------------------------|-----------------------|
B--------------------------|-----------------------|
G--------------------------|-----------------------|
D--(2)---------------------|--(2)------------------|
A--(2)---------------------|--(2)------------------|
E--(0)---------------------|--(0)------------------|

Riff 1:
E--------------------------|--------------------------|
B--------------------------|--------------------------|
G--------------------------|--------------------------|
D--9--9--9--9--2--2--2--2--|--5--5--5--5--7--7--7--7--|
A--7--7--7--7--0--0--0--0--|--3--3--3--3--5--5--5--5--|
E--------------------------|--------------------------|

Riff 2:
E--------------------------------------------|
B--------------------------------------------|
G--------------------------------------6-----|
D--------------------------------------6-----|
A--5--5--5--5--5--5--5--5--5--5--5--5--4-----|
E--------------------------------------------|

E--------------------------------------------|
B--------------------------------------------|
G--------------------------------------10----|
D--------------------------------------10----|
A--5--5--5--5--5--5--5--5--5--5--5--5--8-----|
E--------------------------------------------|

Riff 3:
E---------------------|---------------------|
B---------------------|---------------------|
G--7------------------|--7------------------|
D--5---7---9---9---9--|--5---7---9---9---9--|
A------5---7---7---7--|------5---7---7---7--|
E---------------------|---------------------|

Riff 4:
E-------------------------------------------------|
B-------------------------------------------------|
G-------------------------------------------------|
D--5---7---5---7----------------------------------|
A--3---5---3---5---7-7-7-7-7-7-7-5-7-7-7-7-7-7-7--|
E-------------------------------------------------|

Riff 5:
E---------------------|---------------------|
B---------------------|---------------------|
G---------------------|---------------------|
D--2---7---4---4---4--|--2---7---4---4---4--|
A--0---5---2---2---2--|--0---5---2---2---2--|
E---------------------|---------------------|

E---------------------|-----------------|
B---------------------|-----------------|
G---------------------|-----------------|
D--2---7---4---4---4--|--2---4---2---4--|
A--0---5---2---2---2--|--0---2---0---2--|
E---------------------|-----------------|

Songstructure:
Intro
Riff 1 (6 times)
Riff 2 (2 times)
Riff 1 (6 times)
Riff 2 (2 times)
Bass-riff
Riff 3 (2 times)
Riff 4 (2 times)
Riff 3 (2 times)
Riff 5
Riff 3 (3 times)
Riff 4 (2 times)
Riff 3 (3 1/2 times)
END

Lyrics:

Disintegration you bastard

I've done overdose it doesn't mean shit
One time what about you it doesn't bother me a bit
My body is a weapon and my mind is decay
And all you stupid assholes are here to see me die

Disintegration
Disintegration
Disintegration
Disintegration
Disintegration
Disintegration

I don't need you now so why don't you go away
Your day will come real soon and your mind will be
And everyone will fuck you, you're such a fucking whore
And when I see you standing there
I just don't want no more

Disintegration
Disintegration
Disintegration
Disintegration
Disintegration
Disintegration

I don't want your problem
Sopping all the time
I can't even go
When I don't even have the time

I want everything and every thing wants me
I want everything and every thing comes out of me

I want free money
I want free money
I want free money
I want free money

Life is slavery working 9 to 5
Waste your time working
You might as well die

I want everything and every thing wants me
I want everything and every thing comes out of me

Life is slavery working 9 to 5
Waste your time working
You might as well die


Текст, аккорды и табулатура для песни "Disintegration Free Money", исполняет "Slayer".
Используемые в песне аккорды можно найти в разделе Как брать аккорды. Аккорды для шестиструнной гитары. Другие песни можно найти на нашем сайте, воспользовавшись алфавитным указателем вверху страницы.


 
Ошибка в тексте? Выделите ошибку и нажмите Ctrl+Enter