Intro (и припев)
---------------------------------------------------------------|
---------------------------------------------------------------|
---------------------------------------------------------------|
--------------2------5-----------------------------------------|
|---*---4--------3--------0------3-----------------------------------------|
|--5323-2-225323-1-225323---5323-------------------------------------------|
PM ....   ......   ......   ....                                 
этот риф играется очень быстро


Verse
---------------------------------------------------------------|
---------------------------------------------------------------|
---------------------------------------------------------------|
---------------------------------------------------------------|
-------------------------------5-------8-----------------------|
|-0-2-3-22222--0-2-5-2222-0-2-3-22222-0-2--3--0-2--6-----------------------|
Pm. . . .....  . . . .... . . . ..... . .     . .



Pre chorus
---------------------------------------------------------------|
---------------------------------------------------------------|
---------------------------------------------------------------|
---------------------------------------------------------------|
|--5-------------8-8-8-4---------------------------------------------------|
|--3-333-333-333-6-6-6-2-222-222-222---------------------------------------|


Interlude
---------------------------------------------------------------|
---------------------------------------------------------------|
---------------------------------------------------------------|
---------------------------------------------------------------|
|-------6/5-----5/4-----------4/3------------------------------------------|
|-0-0-0-4/3-0-0-3/2-0-0-0-0-0-2/1------------------------------------------|

---------------------------------------------------------------|
---------------------------------------------------------------|
---------------------------------------------------------------|
---------------------------------------------------------------|
---------10-9--------------------------------------------------|
|-0-2--7-0-0-6-0-0-9-------------------------------------------------------|


для второго соло играйте Interlude


Текст, аккорды и табулатура для песни "Born On Fire", исполняет "Slayer".
Используемые в песне аккорды можно найти в разделе Как брать аккорды. Аккорды для шестиструнной гитары. Другие песни можно найти на нашем сайте, воспользовавшись алфавитным указателем вверху страницы.


 
Ошибка в тексте? Выделите ошибку и нажмите Ctrl+Enter