e----------------------------------------------|
B----------------------------------------------|
G----------------------------------------------|
D8---8---8---8---------------------------------|
A7---7---7---7---------10--|--------10---10------8---8---8-|
E|---0---0--------------------0----0---|---0----0----0---0---0---0---0-|



e-----------------------------------------------|
G-----------------------------------------------|
D8---8---8---8----------------------------------|
A7---7---7---7---------10-|------10--------10--------6----7-|
E|---0---0--------------------0----0--|-0----0----0----0----0----0----0-|



e--------------------------|------|
B--------------------------|------|
G--------------------------|------|
D--------------------------|------|
A|-------10--------10--------6----6----|--7---|
E|--0----0----0----0----0----0----0----|--0---|

riff (a)

e-----------------------------------------------|
B-----------------------------------------------|
G-----------------------------------------------|
D-----------------------|--5--------------------------------|
A--7------------------6-|-----6--5-----5------6--5----------|
E|---0--0----0----------0--0----0---6---------------6--5--7-|

riff (a1)


e-------------------------------------------------|
B-------------------------------------------------|
G-------------------------------------------------|
D-----------------------|--9----------------------------------|
A---10----------------9-|-----10--9------9----10--9-----------|
E|---0--0-----0---------0--0----0----10--------------10--9--11|

riff (b)

e----------------------------------------------|
B----------------------------------------------|
G-------------------------------------5------7-|
D--------------------------|--9-------------------5------7-|
A---10----------------9----|-----10--9------9-----3------5-|
E|---0--0-----0---------0--0----0-------10-----------------|

riff (b1)

e---------------------------------------------|
B---------------------------------------------|
G---------------------------------------------|
D--------------------------|--5------------------3-----5--|
A--7------------------6----|-----6--5-----5------3-----5--|
E|---0--0----0----------0--0----0------6---------1-----3--|

guitar solo:
             p                                     
e|-15------13--12----------p-------p-------p------------------------------|
B-----15-----13--12--13--12--13--12------p----------12--------|
G--------------------------------------14---12--14--12---14~~~|
D-------------------------------------------------------------|
A-------------------------------------------------------------|
E-------------------------------------------------------------|



e-----------------------------------------------------------|
B-----------------------------------------------------------|
G|-14~~~---------14~~~----------14~~~---14~~~---14~~~-----14~~~------/--|
D-----------------------------------------------------------|
A-----------------------------------------------------------|
E-----------------------------------------------------------|


e----------------------------------------------------------|
B----------------------------------------------------------|
G--------------------------------------------12-12-(14)~~~-|
D--12----------12-14-12-14----12-13-14-12-14---------------|
A|-------12-14----14-13-14-------------14------------------------------|
E|-12-15---------------------------------------------------------------|


e---22--(22)~~~---19--(19)~~~---16--(16)~~~--------------|
B-------------------------------------------15--(15)~~~--|
G|--14--------------------------------------------------------------|
D--------------------------------------------------------|
A--------------------------------------------------------|
E--------------------------------------------------------|



e|--12--(12)~~~--------------------------------------------------|
B---12--(12)~~~--------------------------------------|
G-----------------------11----(11)~~~(11)-----------|
D----------------------------------------------------|
A--------------------------------------------------0-|
E------------------------------------------0---3-----|



e---------------------------------------------------------|
B--------------------------------h-------------------p----|
G--------h-----------------h---12-14~~~-(14)-------14-0--|
D|--------h-----h--12-14---------h---12-14----------------------------|
A|---h---7-10-12-14--------h---12-14----------------------------------|
E|--7-10-----------------12-15----------------------------------------|

e----------------------------------------------|
B----------------------------------------------|
G|----4~~~------------------3------------------------------|
D------------------4---|-----6---3-------4-----------------|
A---------------------------------5---------4--|
E----------------------------------------------|


e-----------------------------|
B-----------------------------|
G-----------------------------|
D-----------------------------|
A|--3------------(3)~~~(3)-------(3)-----|
E-----------------------------|



e-----------------------------------------------|
B------------------------------h-h--------------|
G-----------------------h-h---7-9-10----10~~~---|
D----------------h-h---7-9-10-------------------|
A|--h-h---h-h---h-h----h-h--7-8-10--------------------------|
E|-0-1-3-0-1-3-5-7-8--7-8-10--------------------------------|


e--------------------------------------------|
B----------------9-----------(9)---------(9)-|
G----------------9-----------(9)---------(9)-|
D|----9------(9)7--9--7--|--9~~~----7---9-----------(9)---------(9)-|
A--------------------------------------------|
E--------------------------------------------|

e|----20--19--17--15--19--17--15--14--17--15--14--12--15--14--12--10-|
B--------------------------------------------------------|
G--------------------------------------------------------|
D--------------------------------------------------------|
A--------------------------------------------------------|
E--------------------------------------------------------|


e-------tp----tp----tp----tp----tp----tp----tp----tp---|
B|-/14-------------19-14-19-14-19-14-19-14-19-14-19-14-19-14-19-14-|
G------------------------------------------------------|
D------------------------------------------------------|
A------------------------------------------------------|
E------------------------------------------------------|



e|---tp----tp----tp----tp----tp----21~~~(21)--24~~~--24~~~---24~~~|
B|--19-14-19-14-19-14-19-14-19-14---------------------------------|
G-----------------------------------------------------|
D-----------------------------------------------------|
A-----------------------------------------------------|
E-----------------------------------------------------|


e-----------------------------------------|
B|24--23-22-21--24~~~--------------21-----------------|
G----------------------------23----------|
D-----------------------------------------|
A-----------------------------------------|
E-----------------------------------------|


Текст, аккорды и табулатура для песни "Blood Red", исполняет "Slayer".
Используемые в песне аккорды можно найти в разделе Как брать аккорды. Аккорды для шестиструнной гитары. Другие песни можно найти на нашем сайте, воспользовавшись алфавитным указателем вверху страницы.


 
Ошибка в тексте? Выделите ошибку и нажмите Ctrl+Enter