The Truth
Written by Slash's Snakepit
Originally Recorded by SLASH's Snakepit

Tabbed by Ben
---------------------------|
|this is my own            |
|work                      |
---------------------------|
tune down half step, like all of slashs songs
THE TRUTH
AIN'T LIFE GRAND
I didn't write this in time so figure it out yourself.
It's right though.


INTRO and CHORUS
-----------------------------------------------0-|
--9-7-5-7-3--2-3-5-5/7-5--9-7-5-7-3-2-3-5--7---0-|
-----------------------------------------------1-|
-----------------------------------------------2-|
-----------------------------------------------2-|
-----------------------------------------------0-|
guitar 2
-----------------------------------|
-----------------------------------|
--9----7-------5----7----9---------|
--9----7---7---5----7----9--repeat-|
--7----5---7---3----5----7---------|
--0--------5-------------0---------|

verse
-----0-----------0-----|
--------3-----------3--|
--1-----------2--------|
-----------------------|repeat
-----------------------|
-----------------------|
guitar 2  pm.............
-------------------------------------|
-------------------------------------|
-------------------------------------|
------------------------------5v-----|
--5h7--5---4--5-----5-----5h7--------|
-----------------7------7------------|
..how the hell..
-----------------------------------|
-----------------------------------|
---5------7--------9---------------|
---5------7--------9---------------|
---3------5--------7---------------|
-------------------0---------------|
...but i still can sing the truth...

second part of chorus
-------------------------------------------------------------------|
-------------------------------------------------------------------|
-------------------------------------------------------------------|
-------------------------------------------------------------------|
----5h7p5-5-7--8--5h7p5--5--7---9--5h7p5--5--7--7--5h7p5--5--7b----|
--0--------------------------------------------------------------0-|

then
----------------------------|
----------------------------|
----------------------------|
--7-----5----2--------------|
--7-----5----2--------------|
--5-----3----0--------------|

BRIDGE
------------7------------------------|
--------7b----7b--5------------------|
-------------------------------------|
--7--7--------------repeat-4-times---|
--7--7-------------------------------|
--5--5-------------------------------|then

------------5--------------------------------------------|
---------5b---5b--3--------------------------------------|
---------------------------------------------------------|
--5--5---------------5--5---5-5-6-6--repeat-top-part-2x--|
--5--5---------------5--5---5-5-6-6----------------------|
--3--3---------------3--3---3-3-4-4----------------------|
then before solo
----------------------|
----------------------|
---7----7-------------|
---7----7-----7----2--|
---5----5-----7----2--|
--------------5----0--|


Текст, аккорды и табулатура для песни "Truth", исполняет "Slashs Snakepit".
Используемые в песне аккорды можно найти в разделе Как брать аккорды. Аккорды для шестиструнной гитары. Другие песни можно найти на нашем сайте, воспользовавшись алфавитным указателем вверху страницы.


 
Ошибка в тексте? Выделите ошибку и нажмите Ctrl+Enter