Take It Away
It's Five O'Clock Somewhere 
by SLASH/Eric Dover/Matt Sorum

Intro.
Guitar I
*clean guitar (rhythm pick-ups)


-------------5-----------------8--------6--------------1-------8--------6--------5------------
------6--------------(8)--------6--------6----------3------------6--------6--------6---------
---------7-------------------------7--------7-----2------2/4-------7--------7--------7-------
--0------------5/7------------------------------0--------------------------------------0-------
-------------------------------------------------------------------------------------------------
-------------------------------------------------------------------------------------------------

	*let notes ring through out

Guitar II
*clean guitar

-------------------------------------------------------------------------------------------------
-------------------------------------------------------------------------------------------------
----------------------2--0-----0------------------------------2--0----0-----------------------
-----------------------------3----3--0------------------------------3----3--0------------------
-------------------------------------------------------------------------------------------------
-------------------------------------------------------------------------------------------------


Guitar II
*distortion					               full full


-------------------------------------------------------------------------------------------------
------------------------x---10/------------------------x--12­Ї­/----------------------------
---2--2--2--2--2--2--x---10/---2--2--2--2--2--2--x--12­Ї­/----------------------------
---0--0--0--0--0--0-------------0--0--0--0--0--0-------------------------------------------
-------------------------------------------------------------------------------------------------
-------------------------------------------------------------------------------------------------


Verse

-------------------------------------------------------------------------------------------------
-------------------------------------------------------------------------------------------------
-------------------------------------------------------------------------------------------------
---7--7---5--0-----------7--7--5--0---------7--7--5--0-------------------------------------
---5--5---3--0---5--3---5--5--3--0--5--3--5--5--3--0-5--3--5-x-x-3--------------------
-------------------3--1-----------------3--1---------------3--1--3-x-x-1-0-----------------



Текст, аккорды и табулатура для песни "Take It Away", исполняет "Slashs Snakepit".
Используемые в песне аккорды можно найти в разделе Как брать аккорды. Аккорды для шестиструнной гитары. Другие песни можно найти на нашем сайте, воспользовавшись алфавитным указателем вверху страницы.


 
Ошибка в тексте? Выделите ошибку и нажмите Ctrl+Enter