Soma city ward
Slash's Snakepit
It's five o'clock somewhere

Tabbed by:    Patrick Kunert


Intro (Slash's guitar part):
 Riff A played 3 times
|---------------------------------------------------------|
|---------------------------------------------------------|
|---------------------------------------------------------|
|-------------------------------------------2--3--4-------|
|----------------------0--2--0--3--0--4--0----------------|
|---0------0--1--0--2-------------------------------------|

 Riff B played one time after Riff A
|---------------------------------------------------------|
|---------------------------------------------------------|
|---------------------------------------------------------|
|----------------------------------4--2-------------------|
|----------------------------------------4--3--2--0-------|
|-0-------0--1--0--2--0--2--0------------------------2----|

Guitar 2 (Gilby)
Rhythm Fig  A       played  4 times
4    +    //    1      +       2      +       3       +       4       +    //
     E5                E5      F5     E5      F#5

then
4   +   //   1   +    2    +     3
    E5           E5   F5   E5    F#5

 On 4 (4 times):
|--------------------------------------------|
|--------------------------------------------|
|--------------------------------------------|
|--------------------------------------------|
|----------------0---2---0----3---0---4------|
|-0---2--------------------------------------|

A5 ( 2 times)               E5  (4 times)

 Verse (Slash):
|------------------------------------------------------------|
|------------------------------------------------------------|
|------------------------------------------------------------|
|------------------------------------------------------------|
|------------------------------------------------0--2--3--4--|
|--0----0--2--0--1--------0--1--------0--1--0----------------|

*****************************************************
|    Appetite for tablatures home page              |
|    http://www.geocities.com/SunsetStrip/7317/     |
*****************************************************


Текст, аккорды и табулатура для песни "Some City Ward", исполняет "Slashs Snakepit".
Используемые в песне аккорды можно найти в разделе Как брать аккорды. Аккорды для шестиструнной гитары. Другие песни можно найти на нашем сайте, воспользовавшись алфавитным указателем вверху страницы.


 
Ошибка в тексте? Выделите ошибку и нажмите Ctrl+Enter