Slash’s Snakepit : Shine 

|--------------------------------------------5---|
|-------5-------------7----------5-------------5-|
|-----4---4---4-----4----------4---4---4---------|
|-4h6-------6---6h7--------4h6-------6---6h7-----|
|------------------------------------------------|
|------------------------------------------------|

|-----------------------------| |--------------------------|
|-----------------------------| |--------------------------|
|-----------------------------| |--------------------------|
|-----------------------------| |--------------------------|
|-5-6-7---------5--6-7--5-6-7-| |-----2--5-6-7-5-----------|
|-------0-5-6-7---------------| |-3b--0----------7-0-7-6-5-| 

solo ; 

E-----12---------------------------------------------------------------
B------------15-15-15-12-12-12-10-10-10--8-10-10'-10-8-----------------
G-------------------------------------------------------9-7~-----------
D----------------------------------------------------------------------
A----------------------------------------------------------------------
E----------------------------------------------------------------------


E----------------10~---15'-15-12-15--15'-16'-17'-15-12~----------------
B------8--10-----------------------------------------------------------
G--9-------------------------------------------------------------------
D----------------------------------------------------------------------
A----------------------------------------------------------------------
E----------------------------------------------------------------------

play this two times:

E--------5-5------5-5-----5-5----5-5-----5-5----5-5---------5-5----5-5-
B--------5--5-----5-5-----5-5----5-5-----5-5----5-5---------5-5----5-5-
G---7'----------7'-------7--------7--------6--------6-------5-6----5-6-
D----------------------------------------------------------------------
A----------------------------------------------------------------------
E----------------------------------------------------------------------

not really accurate,but it sounds good:

E-5----5----5-8-5----5~------------------------------------------------
B-----------------------8------8-5-------------------------------------
G-------------------------------------8-7-5---7-5-4--------------------
D----------------------------------------------7----------7-5----------
A---------------------------------------------------------------7-5-3~-
E----------------------------------------------------------------------


Well that’s about it really cool song
Any suggestions plz mail at [email protected] 



E-------------------------------------------------------------------12---------------
B------------------------------5--------------------------------12------15'----------
G------------------------------5----------(7)-5--------14'---------------------------
D--------------5-3-(5)-7------7~-----------------------------------------------------
A-----3-3~---------------------------------------------------------------------------
E--5---------------------------------------------------------------------------------


E------------------------------------------------------------------12-12-14-14-15-15-
B--15'---15-13-15-12--13--12-13-12-----------12-12-15-15-----------------------------
G----------------------------------------------------12'--~--------------------------
D------------------------------------------------------------------------------------
A------------------------------------------------------------------------------------
E------------------------------------------------------------------------------------


E--17-17-22-22--22'-
B-------------------
G-------------------
D-------------------
A-------------------
E-------------------


Текст, аккорды и табулатура для песни "Shine", исполняет "Slashs Snakepit".
Используемые в песне аккорды можно найти в разделе Как брать аккорды. Аккорды для шестиструнной гитары. Другие песни можно найти на нашем сайте, воспользовавшись алфавитным указателем вверху страницы.


 
Ошибка в тексте? Выделите ошибку и нажмите Ctrl+Enter