Slashs Snakepit:
Beggars and Hangers On
Its 5 O'Clock Somewhere
tabbed by Luke([email protected])
tuning:standard
this is 100% right
intro:
-----
e|-------------------------------------|
b|-------------------------------------|
g|-------------------------------------|
D|-2b-0-------0-------0----------------|
A|------0--2b---0--2b---0--2b-0--------|
E|-------------------------------------|

e|-------------------------------------|
b|-------------------------------------|
g|-------------------------------------|  thats wut it is for the chorus to
D|-2b--0-----0-------0----5/7----------|
A|--------2b---0--2b---0--3/5----------|
E|


Текст, аккорды и табулатура для песни "Beggars And Hangers On", исполняет "Slashs Snakepit".
Используемые в песне аккорды можно найти в разделе Как брать аккорды. Аккорды для шестиструнной гитары. Другие песни можно найти на нашем сайте, воспользовавшись алфавитным указателем вверху страницы.


 
Ошибка в тексте? Выделите ошибку и нажмите Ctrl+Enter