song:swallow
album:11-41
artist:SLAPSHIT!!!(piss of crap!!)
tab by:leander m.
tune:dro D
intro:guitar I
ring-~~~

E|------5-----5-3h5------|
B|----6-----5-------6h8--|
G|--7-----5--------------|(2x)
D|-----------------------|
A|-----------------------|
D|-----------------------|

guitar II
E|--8/10----10-10p8-85-5-8/10----13-13-12-12--|
B|-------10--------------------10--------------|
G|---------------------------------------------|
D|---------------------------------------------|
A|---------------------------------------------|
D|---------------------------------------------|

stnaza(light distortion)
E|-----------------------------------------------------------|
B|-----------------------------------------------------------|
G|-----------------------------------------------------------|
D|--7-7-7-7-7--7--8-8-8-8------------------------------------|
A|--5-5-5-5-5--5--6-6-6-6--7-7-7-7-7--7--8-8-10-10-10-10-10--|
D|--0-0-0-0-0--0--0-0-0-0--7-7-7-7-7--7--8-8-10-10-10-10-10--|
    . . . . .     . . . .
refrain....place for me in you(clean sound)
E|---------------------------------------|
B|---------------------------------------|
G|--7---7---7---7---7-7---7---7---7---7--|
D|--7-7---7---7---7---7-7---7---7---7----|
A|--5-----------------5------------------|
D|--0-----------------0------------------|

chorus...you swallow...(on heavy dist.)
E|----------------------------------|
B|----------------------------------|
G|----------------------------------|
D|--7-7-7-7-------5/7-10-3~~~-5~~~--|
A|--5-5-5-5--0-0--3/5-8--3~~~-3~~~--|
D|--0-0-0-0--0-0--0------3~~~-0~~~--|
             . .
E|------------------------------------------|
B|------------------------------------------|
G|------------------------------------------|
D|--7-7-7-7-------5/7-10-7-------5-7-5-5-7--|
A|--5-5-5-5--0-0--3/5-8--5-5-5-5-3-5-3-3-5--|
D|--0-0-0-0--0-0--0--------0-0-0-0-0-0-0-0--|
             . .           . . .  
(repeat)

interlude(after chorus)        (guitar II)
E|-----------------------------||--------|
B|-----------------------------||--------|
G|-----------------------------||--------|
D|-----------------------------||--0x0x--|
A|--------5---35-----5---35--||--0x0x--|
D|--0-0-0---0-----0-0---0------||--0x0x--|
      . .         . .
repeat Intro
repeat stanza
repeat chorus
repeat inrtelude

bridge:
E|------------------------------------|
B|------------------------------------|
G|------------------------------------|
D|------7/57-------7/57-0x0x--0~~~--|
A|------5/35-------5/35-0x0x--0~~~--|
D|--0-0-0-0-0--0-0--------0x0x--0~~~--|

(clean sound)
D          F                              D
you follow everything that feed to you my friend

(then...)
E|-------------------|
B|-------------------|
G|-------------------|
D|--------5-7-5-5-7--|
A|--5-5-5-3-5-3-3-5--|
D|--0-0-0-0-0-0-0-0--|

then repeat chorus
say it again(4x)-final riff
E|-------------------|
B|-------------------|
G|-------------------|
D|--------5----------|
A|--5-5-5-3-(break)--|
D|--0-0-0-0----------|

tab by:leander m.
        the end
       cOr@_t!r@


Текст, аккорды и табулатура для песни "Swallow", исполняет "Slapshock".
Используемые в песне аккорды можно найти в разделе Как брать аккорды. Аккорды для шестиструнной гитары. Другие песни можно найти на нашем сайте, воспользовавшись алфавитным указателем вверху страницы.


 
Ошибка в тексте? Выделите ошибку и нажмите Ctrl+Enter