SEX FREAK
Guitar Tabs
Transcribed by: Jerry Basco 
TUNING: C G C F A D (whole step down + drop C)

INTRO: (........3x)
D|-------------------------------|
A|-------------------------------|
F|--7----8-5-7------7----5-10-7--|
C|-------------------------------|
G|--5----6-3-5------5----3--8-5--|
C|-------------------------------|

D|---------------------------------------------------|
A|---------------------------------------------------|
F|----------7-7---------7-7---------8-8---------8-8--|
C|---------------------------------------------------|
G|----------5-5---------5-5---------6-6---------6-6--|
C|--0-3^0-0-----0-3^0-0-----0-3^0-0-----0-3^0-0------|

VERSE:
D|-----------------------------------------------------|
A|------------------------------------------------4-3--|
F|-----------------------------------------------------|
C|-----------------------------------------------------|
G|-----------------------------------------------------|
C|--0-3^0-0-0---0-3^0-0-0---0-3^0-0-0---0-3^0-0-0------|

CHORUS:
D|---------------------------------------------------|
A|---------------------------------------------------|
F|----------7-7---------7-7---------8-8---------8-8--|
C|---------------------------------------------------|
G|----------5-5---------5-5---------6-6---------6-6--|
C|--0-3^0-0-----0-3^0-0-----0-3^0-0-----0-3^0-0------|
Guitar part (whammy)
D|--------------| |--17--|
A|--10~~octave--| |------|
F|--------------| |------|
C|--------------| |------|
G|--------------| |------|
C|--------------| |------|
Guitar 1 Guitar 2
(...........4x)
D|--------------------------| |--0-----x-x--|
A|--------------------------| |--0-----x-x--|
F|--------------------------| |--0-----x-x--|
C|--0-0---0-0-0-0------3----| |--0-----x-x--|
G|--0-0---0-0-0-0------3----| |--0-----x-x--|
C|--0-0---0-0-0-0------3----| |--0-----x-x--|

BRIDGE: (....................4x)
D|----------------------------|
A|----------------------------|
F|----------------------------|
C|----------------------------|
G|--0-0--0-1-0-1-0--0-0--0-1--|
C|--0-0--0-1-0-1-0--0-0--0-1--|

OUTRO: (...........................4x)
D|----------------------------------| |-------|
A|----------------------------------| |-------|
F|-----------------------------7-7--| |-------|
C|----------------------------------| |-------|
G|-----------------------------5-5--| |--0-0--|
C|--0-3^0----0-3^0----0-3^0---------| |--0-0--|

Song Structure: Legend:
Intro ^ = hammer on
Verse x = dead string
Chorus
Verse
Chorus
Guitar part
Bridge
Chorus
Outro


Текст, аккорды и табулатура для песни "Sex Freak", исполняет "Slapshock".
Используемые в песне аккорды можно найти в разделе Как брать аккорды. Аккорды для шестиструнной гитары. Другие песни можно найти на нашем сайте, воспользовавшись алфавитным указателем вверху страницы.


 
Ошибка в тексте? Выделите ошибку и нажмите Ctrl+Enter