GET AWAY
Guitar Tabs
Transcribed by: Jerry Basco 
TUNING: D G C F A D (whole step down)

INTRO:
D|--------------------------------------------0-0--|
A|-------------------------------------------------|
F|-------------------------------------------------|
C|----2-2---3-3---2-2---3-3---2-2---3-3---2-2------|
G|-------------------------------------------------|
D|--0-----1-----0-----1-----0-----1-----0----------|
(........................................use chorus efx)
VERSE:
D|--------------------------------------------0-0--|
A|-------------------------------------------------|
F|-------------------------------------------------|
C|----2-2---3-3---2-2---3-3---2-2---3-3---2-2------|
G|-------------------------------------------------|
D|--0-----1-----0-----1-----0-----1-----0----------|
Guitar 1
D|--12---13^15-12-----------------------------12---13^15-12-----------------------|
A|-----------------15-15^17--1512--12-13-15-----------------15-15^17--1512--13--|
F|--------------------------------------------------------------------------------|
C|--------------------------------------------------------------------------------|
G|--------------------------------------------------------------------------------|
D|--------------------------------------------------------------------------------|
Guitar 2
CHORUS: (...................4x)
D|--------------------------|
A|--------------------------|
F|--------------------9/10--|
C|--------------2-2---------|
G|----5^7---3---2-2---7/8---|
D|--0-----0-1---0-0-0-------|

BRIDGE:
D|-----------------------------------------------------------------------|
A|-----------------------------------------------------------------------|
F|--9---9-9-9-----7---7-7-7-----9---9-9-9-----7---7-7--------------------|
C|-----------------------------------------------------2-2--2--2----(2)--|
G|--7---7-7-7-----5---5-5-5-----7---7-7-7-----5---5-5--2-2--2--2----(2)--|
D|-----------------------------------------------------0-0--0--0----(0)--|

(.................................4x)
D|--------------------------------------|
A|--------------------------------------|
F|--------------------------------------|
C|--------------------------------------|
G|--3--2-2--2-3-2-2--2-3-2-2--2-3/---7--|
D|--1--0-0--0-1-0-0--0-1-0-0--0-1/---5--|

(...............................................4x)
D|-----------------------------------------------------|
A|-----------------------------------------------------|
F|--10--10-9-9--9-10-10-9-9--9-10-10-9-9--9-10-9-10-9--|
C|-----------------------------------------------------|
G|-----------------------------------------------------|
D|-----------------------------------------------------|

(............................4x)
D|------------------------------------------|
A|------------------------------------------|
F|------------------------------------------|
C|------------------------------------------|
G|--8-7----3--2-2--2-3-2-2--2-3-2-2--2-3-7--|
D|--6-5----1--0-0--0-1-0-0--0-1-0-0--0-1-5--|

....behind fret nut
D|-------------------x-------------------|
A|-------------------x-------------------|
F|-------------------x-------------------|
C|--2--2--2-2-2--2----------------------------|
G|--2--2--2-2-2--2----------------------------|
D|--0--0--0-0-0--0----------------------------|

OUTRO: (.............4x)
D|-------------------------------------------------------|
A|-------------------------------------------------------|
F|--------------------9/10-------------------------------|
C|-------------------------------------------------------|
G|----5^7---3---------7/8-------5^7-7-5-7--5^7-7-5-7-8--|
D|--0-----0-1--------------------------------------------|
......sus

Song Structure: Legend:
Intro ^ = hammer on
Verse / = slide up
Chorus  = slide down
Guitar 1 sus = sustain
Verse
Chorus
Bridge
Chorus
Outro


Текст, аккорды и табулатура для песни "Get Away", исполняет "Slapshock".
Используемые в песне аккорды можно найти в разделе Как брать аккорды. Аккорды для шестиструнной гитары. Другие песни можно найти на нашем сайте, воспользовавшись алфавитным указателем вверху страницы.


Слушать онлайн Get Away


SlapshockGet Away на Яндекс.Музыке


 
Ошибка в тексте? Выделите ошибку и нажмите Ctrl+Enter