Song : Lately 
   Band : Skunk Anasie
   Album : Post Orgasmic Chill

   Transcribed by Skarz ([email protected]).

   Normal Tuning : EBGDAE

   Small Note On the second time of the Verse and Chorus the F must be Strummed
   around
   16x

   Intro Riff:

   C - E - Am - F 

   Verse Fill Over Bass : 
   F
   E:|----0----0-----0-----1------|----0----0-----0--1-------------------------|
   B:|----1----0-----1-----1------|----1----0-----1--1-------------------------|
   G:|---0----1-----2-----2-------|---0----1-----2---2----2-2-4-4-5-7-7-7-7-7--|
   D:|--2----2-----2-----3--------|--2----2-----2----3-------------------------|
   A:|-3----2-----0-----3---------|-3----2-----0-----3-------------------------|
   E:|----------------------------|------------------1-------------------------|


   Chorus:
   F 
   E:|----0----0-----0-----1------|----0----0----0----1------------------------|
   B:|----1----0-----1-----1------|----1----0----1----1------3----3/6----------|
   G:|----0----1-----2-----2------|----0----1----2----2------------------------|
   D:|----2----2-----2-----3------|----2----2----2----3------------------------|
   A:|----3----2-----0-----3------|----3----2----0----3------------------------|
   E:|----x----0-----x-----1------|----x----0----X----1------------------------|


   Repeat Verse

   Chorus 2 :
   F
   E:|----0----0-----0-----1------|----0----0----0----1------------------------|
   B:|----1----0-----1-----1------|----1----0----1----1------------------------|
   G:|----0----1-----2-----2------|----0----1----2----2----2-2-4-4-5-7-7-7-7-7-|
   D:|----2----2-----2-----3------|----2----2----2----3------------------------|
   A:|----3----2-----0-----3------|----3----2----0----3------------------------|
   E:|----x----0-----x-----1------|----x----0----X----1------------------------|


   Bridge : 

   E:|-------------------------------------------------------------------------|
   B:|-------------------------------------------------------------------------|
   G:|-------------------------------------------------------------------------|
   D:|-------------------------------------------------------------------------|
   A:|-0-0----------3-2-0---2-3-0-----0-3-2-0-------3-2-0-------2-3-0----------|
   E:|-----0-0-3-3--------0-------1-1---------3-----------0-----------1-1------|

   E:|-------------------------------------------------------------------------|
   B:|-------------------------------------------------------------------------|
   G:|----------------------------------------------------12^*-----------------|
   D:|-------------------------------------------------------------------------|
   A:|-0-3-2-0-------3-2-0-------2-3-0-----------------------------------------|
   E:|---------3-----------0-----------1-1-------------------------------------|

   * = Slight Wah
   ^ = Bend

   Solo : 

   E:|----------------------------------8-7---7-5---------5/12-12-12-12-12-12--|
   B:|----8------8-------8------8-----8-----8-----5----------------------------|
   G:|-5-----5-4----4-2-----2------5-------------------------------------------|
   D:|------------------------3------------------------------------------------|
   A:|-------------------------------------------------------------------------|
   E:|-------------------------------------------------------------------------|

   E:|-17^-20--17^-20--17------------------------------------------------------|
   B:|-------------------------------------------------------------------------|
   G:|----------------------2-2-4-4-5-7-7-7-7-7--------------------------------|
   D:|-------------------------------------------------------------------------|
   A:|-------------------------------------------------------------------------|
   E:|-------------------------------------------------------------------------|


   Repeat Chorus 1 Twice as Outro


   For Corrections Email me at [email protected]

   C ya in Another Tablature :)


Текст, аккорды и табулатура для песни "Lately", исполняет "Skunk Anansie".
Используемые в песне аккорды можно найти в разделе Как брать аккорды. Аккорды для шестиструнной гитары. Другие песни можно найти на нашем сайте, воспользовавшись алфавитным указателем вверху страницы.


Слушать онлайн Lately


Skunk AnansieLately на Яндекс.Музыке


 
Ошибка в тексте? Выделите ошибку и нажмите Ctrl+Enter