Song: Cheap Honesty
Band: Skunk Anansie
Album: Post Orgasmic Chill


(E,A,D,G)


Verse 

G|-------------------------------------------------------------|
D|--16---------16---------------16----------16-----------------|
A|-----15-14------15-14-/12-14-----15-14-------15-14-/12-14----|
E|-------------------------------------------------------------|

G|-----------------------------|
D|---16---------16-------------| 
A|------15-14------15-14-/(12)-|
E|-----------------------------|

G|-----------------------------------------------7---7------------------------|
D|---------10----10--------8---8---------------7---7------------10----10------|
A|------10----10---------8---8-------------4-5---------------10----10---------|
E|----8----------------6-----------5---5-7---------------8-8--------------6---|


Chorus 1

G|------------------------------------------------|
D|------------------------------------------------|
A|------------------------------------------------|
E|-6-6-6-6-6---3-3-3-3-3--/10-10-10-10-10---6--9/-|

G|----------------------------------------------------------|
D|----------------------------------------------------------| 
A|----------------------------------------------------------|
E|-6-6-6-6-6---3-3-3-3-3--/10-10-10-10-10---8-8-8-8-5-5-5-5-|

G|--------------------------------------------------------------------|
D|-----------------------------12-------12-10-------------------------|
A|--------------------------------10-12------12-10-12-----------------|
E|-6-6-6-6-6---3-3-3-3-3/--10--------------------------8-8-8-8-5-5-5-5|

G|------------------------------------------------|
D|------------------------------------------------|
A|------------------------------------------------|
E|-6-6-6-6-6---3-3-3-3-3--/10---------------------|


Verse 

G|-------------------------------------------------------------|
D|--16---------16---------------16----------16-----------------|
A|-----15-14------15-14-/12-14-----15-14-------15-14-/---------|
E|-------------------------------------------------------------|

G|-----------------------------------------------7---7------------------------|
D|---------10----10--------8---8---------------7---7------------10----10------|
A|------10----10---------8---8-------------4-5---------------10----10---------|
E|----8----------------6-----------5---5-7---------------8-8--------------6---|


Chorus 1

G|------------------------------------------------|
D|------------------------------------------------|
A|------------------------------------------------|
E|-6-6-6-6-6---3-3-3-3-3--/10-10-10-10-10---6--9/-|

G|----------------------------------------------------------|
D|----------------------------------------------------------| 
A|----------------------------------------------------------|
E|-6-6-6-6-6---3-3-3-3-3--/10-10-10-10-10---8-8-8-8-5-5-5-5-|

G|--------------------------------------------------------------------|
D|-----------------------------12-------12-10-------------------------|
A|--------------------------------10-12------12-10-12-----------------|
E|-6-6-6-6-6---3-3-3-3-3/--10--------------------------8-8-8-8-5-5-5-5|

G|------------------------------------------------|
D|------------------------------------------------|
A|------------------------------------------------|
E|-6-6-6-6-6---3-3-3-3-3--/10-----/22-------------|

Bridge

G|------------------------------------------------|
D|------------------------------------------------| Repeat 3x
A|-----------5-5-5-5-5-5--------------------------|
E|-3--3--3-3---------------6-5-6-5-6---8-6--5-----|


G|---------------------------------------------------------|
D|-5-5-5-5-5-5-5-3-3-3-3-3-3-3-1-1-1-1-1-1-1-1-1-1-1-1-1-1-|
A|---------------------------------------------------------|
E|---------------------------------------------------------|


Chorus 2

G|------------------------------------------------------------------------|
D|-----------------------------14-------14-12-----------------------------|
A|--------------------------------12-14------14-12-14---------------------|
E|-8-8-8-8-8---5-5-5-5-5/--12--------------------------10-10-10-10-7-7-7-7|

G|--------------------------------------------------------------|
D|--------------------------------------------------------------| 
A|--------------------------------------------------------------|
E|-8-8-8-8-8---5-5-5-5-5--/12-12-12-12-12---10-10-10-10-7-7-7-7-|

G|------------------------------------------------------------------------|
D|-----------------------------14-------14-12-----------------------------|
A|--------------------------------12-14------14-12-14---------------------|
E|-8-8-8-8-8---5-5-5-5-5/--12--------------------------10-10-10-10-7-7-7-7|

G|-----------------------------------------------------------|
D|-----------------------------------------12----------------|
A|-----------------------------------12-14----14-12-14-10-12-|
E|-8-8-8-8-8---5-5-5-5-5--/12-12-12--------------------------|


G|------------------------------------------------------------------------|
D|-----------------------------14-------14-12-----------------------------|
A|--------------------------------12-14------14-12-14---------------------|
E|-8-8-8-8-8---5-5-5-5-5/--12--------------------------10-10-10-10-7-7-7-7|


G|-----------------------------------------------------------|
D|-----------------------------------------12----------------|
A|-----------------------------------12-14----14-12----------|
E|-8-8-8-8-8---5-5-5-5-5--/12-12-12--------------------------|


G|------------------------------------------------------------------------|
D|-----------------------------14-------14-12-----------------------------|
A|--------------------------------12-14------14-12-14---------------------|
E|-8-8-8-8-8---5-5-5-5-5/--12--------------------------10-10-10-10-7-7-7-7|


G|--------------------------------------------------------------|
D|--------------------------------------------------------------| 
A|--------------------------------------------------------------|
E|-8-8-8-8-8---5-5-5-5-5--/12-----------------------------------|


Outro

G|-----------------------------------------------------------------------------|
D|-------10----10--------------------10-----10------7---7----------------------|
A|----10----10--------------------10-----10-------7---7------------------------|
E|--8---------------5-----0-----8---------------5-----------0------------------|


  Tabbed by Felix
  Any suggestions or comments: [email protected]


Текст, аккорды и табулатура для песни "Cheap Honesty", исполняет "Skunk Anansie".
Используемые в песне аккорды можно найти в разделе Как брать аккорды. Аккорды для шестиструнной гитары. Другие песни можно найти на нашем сайте, воспользовавшись алфавитным указателем вверху страницы.


Слушать онлайн Cheap Honesty


Skunk AnansieCheap Honesty на Яндекс.Музыке


 
Ошибка в тексте? Выделите ошибку и нажмите Ctrl+Enter