Основная мелодия:
1|--0-2-3--3--3p5-3-2-0-------2-3-2---
2-----------3-3---------3-
3-------------------------

1|--0-2-3--3--3p5-3-2-0---------------
2-----------3-5---5-3-----
3---------------------2---

Аккорды, под которые сия мелодия играется: Em C G D

Бас:

1----------------------------------------------------
2----------------------------------------------------
3|---------3-3--3--------5-5--7-5--7-7--7--3-3--3--------5-5-7-5-
4|--0-0--0--------3-3--3--------------------------3-3--3---------

 После первого куплета в проигрыше гитара играет на заднем фоне с Distorion:

1|-xxx-0--xxx--0--xxx--3--xxx-2--
2|-xxx-0--xxx--1--xxx--3--xxx-3--
3--------------------
4--------------------
5--------------------
6--------------------
  x-глущеные струны

Во втором куплете есть такая фишка:
1----------------12--12-12--12-12--10--10-10--10-10--
2----------------12--12-12--12-12--8---8--8---8--8---
3----------------------------------------------------
4|-----5-----5----5----5-----------------------------------------
5|--5p7---5p7--5p7--5p7------------------------------------------
6----------------------------------------------------

В припеве играется так:
Гитара E5, C5, G5, D5
Бас:
1------------------
2------------------
3|--------3-3--3---------------
4|-0-0--0--------3-3--3-2-2--2-

Инструментальная часть:
Клавиши:
1|-0-2-3--3-5-3-2------0-2-3-------0-2-3--3-5-3-2-------0-2----
2-----3----------0--------------------3---------0--

Ну а дальше и так все ясно.


Текст, аккорды и табулатура для песни "Любить платить", исполняет "Скрябин".
Используемые в песне аккорды можно найти в разделе Как брать аккорды. Аккорды для шестиструнной гитары. Другие песни можно найти на нашем сайте, воспользовавшись алфавитным указателем вверху страницы.


 
Ошибка в тексте? Выделите ошибку и нажмите Ctrl+Enter