Promise Blender
Skillet
Forefront Records
                        
Ok kiddies I know I submitted this song before, but the solo was so
messed up it wasn't even funny.  This is the correct version...... well
I'm pretty sure it is.

Verses:  (This isn't the correct number of times you play each note but 
           if you try you should get it)
G|--------------------------------------|
D|------------------1-1-1-1-------------|
A|-----2-2-2-2-2-2-----------0-0-0-0----|
E|--------------------------------------|

Chorus:    (This is the right amount of times you play it)

G|--------------------------------------|
D|--------------------------------------|
A|--2-2-25-5-5/2-2-2-------------------|
E|--------------------3-X-X-5-5-X-X-5-5-|

Solo:    (these are the four basic parts to the solo you have to
figure    out where each of them go... sorry)
Part 1

G|-----------------------------------|
D|-----------------------------------|
A|----6---6---6---6---6---6---6---6--|
E|--7---7---7---7---7---7---7---7----|

Part 2

G|-----------------------------------|
D|------------8---8---8-8------------|
A|----------6---6---6----------------|
E|-----------------------------------|

Part 3

G|------------------------------------|
D|----9--7--6-------------------------|
A|-------------9--7--6--0-------------|
E|------------------------------------|

Part 4

G|------------------------------------|
D|------------------------------------|
A|------------6--6--5--6--------------|
E|---7--7--6--7-----------------------|

That's the song...  I'm pretty sure it is..  If you have any questions
of anything just give a mail at [email protected]


Текст, аккорды и табулатура для песни "Promise Blender", исполняет "Skillet".
Используемые в песне аккорды можно найти в разделе Как брать аккорды. Аккорды для шестиструнной гитары. Другие песни можно найти на нашем сайте, воспользовавшись алфавитным указателем вверху страницы.


 
Ошибка в тексте? Выделите ошибку и нажмите Ctrl+Enter