Artist: Ska-P
Song:   Intifada

Tabbed by Jakobb, Holland.

Any comments or whatever, send em to [email protected]

Warning: very cool, a little difficult, but not too hard

*note* :  In the wooohooohoooohoooo parts, the riffs '3-2343' and '5-4565' are very hard
to hear, but listen carefully....


> means strum, play the note a couple of times

Intro

G|---------------------------------
D|---------------------------------
A|---------------------4-4----3-3-3
E|-1-1--1----4-4--4----------------

Verse

G|------------------
D|------------------
A|----------4>--3>--
E|--1>--4>----------


G|--------5-------------------------------------------------------
D|--3--6-----6--3-------------------------------------------------
A|-----------------6--4--3-----3--6--3-----3--6--3--4--3--4--6--4-
E|--------------------------4-----------4-------------------------

G|------------------------------------
D|-------------2--5--2-----------2----
A|-------4--3-----------3--4--6-------
E|-1--4-------------------------------

G|--------5-------------------------------------------------------
D|--3--6-----6--3-------------------------------------------------
A|-----------------6--4--3-----3--6--3-----3--6--3--4--3--4--6--4-
E|--------------------------4-----------4-------------------------

G|----------------------------------------------
D|-------------2--5--2-----------2--------------
A|-------4--3-----------3--4--6-----------------
E|-1--4-----------------------------------------

Here comes a part wich is the same as the intro. ( call it 'intro 2')

Intro 2

G|---------------------------------
D|---------------------------------
A|---------------------4-4----3-3-3
E|-1-1--1----4-4--4----------------

Verse 2

G|------------------
D|------------------
A|----------4>--3>--
E|--1>--4>----------

G|--------5-------------------------------------------------------
D|--3--6-----6--3-------------------------------------------------
A|-----------------6--4--3-----3--6--3-----3--6--3--4--3--4--6--4-
E|--------------------------4-----------4-------------------------

G|------------------------------------
D|-------------2--5--2-----------2----
A|-------4--3-----------3--4--6-------
E|--1--4------------------------------

G|--------5-------------------------------------------------------
D|--3--6-----6--3-------------------------------------------------
A|-----------------6--4--3-----3--6--3-----3--6--3--4--3--4--6--4-
E|--------------------------4-----------4-------------------------

G|-----------------------------------------------
D|--------------2--5--2-----------2--------------
A|--------4--3-----------3--4--6-----------------
E|--1--4-----------------------------------------

Intro 3

G|---------------------------------
D|---------------------------------
A|---------------------4-4----3-3-3
E|-1-1--1----4-4--4----------------

Pre-chorus

G|------------
D|------------
A|--1>--3>----
E|------------

Chorus

G|------------------------------------
D|------------------------6-----------
A|----------3--4--6>--4>-----6--------
E|--1>--4>----------------------------

'wooohoooohooohoooooo INTIFADA' part

G|-----------------------------------------
D|-----------------------------------------
A|-------------4>--3>-3-2343---------------
E|---1>----4>------------------------------

G|-----------------------------------------
D|-----------------------------------------
A|-------------4>--3>-3-2343---------------
E|---1>----4>------------------------------


Verse 3

G|------------------
D|------------------
A|----------4>--3>--
E|--1>--4>----------

G|--------5----------------------------------------------------
D|--3--6-----6--3----------------------------------------------
A|----------------6--4--3---3--6--3-----3--6--3---4--3--4--6--4
E|------------------------4----------4-------------------------

G|------------------------------------
D|------------------------------------
A|-------4--3-------3---3--3----------
E|-1--4-------------------------------

G|--------5-------------------------------------------------------
D|--3--6-----6--3-------------------------------------------------
A|-----------------6--4--3-----3--6--3-----3--6--3--4--3--4--6--4-
E|--------------------------4-----------4-------------------------

G|------------------------------------
D|-------------2--5--2-----------2----
A|-------4--3-----------3--4--6-------
E|-1--4-------------------------------

Intro 4 (yeah I know these aren't intro's)

G|----------------------------------
D|----------------------------------
A|---------------------4-4----3-3-3-
E|--1-1--1----4-4--4----------------

Pre-Chorus

G|------------
D|------------
A|--1>---3>---
E|------------

Chorus

G|----------------------------------
D|------------------------6---------
A|----------3-4--6>--4>-------6-----
E|--1->-4>--------------------------

G|----------------------------------
D|----------------------------------
A|----------3-4--6>--4>-------------
E|--1->-4>--------------------------

G|----------------------------------
D|------------------------6---------
A|----------3-4--6>--4>-------6-----
E|--1->-4>--------------------------

G|----------------------------------
D|----------------------------------
A|----------3-4--6>--4>-------------
E|--1->-4>--------------------------

Renewed woohooohoooohooo intifada part

G|--------------------------------------------------------
D|--------------------------------------------------------
A|----------6>--5>-5-4565-------------6>--5>-5-4565-------
E|--3>--6>-------------------3>--6>-----------------------

G|--------------------------------------------------------
D|--------------------------------------------------------
A|----------6>--5>-5-4565-------------6>--5>-5-4565-------
E|--3>--6>-------------------3>--6>-----------------------


Текст, аккорды и табулатура для песни "Intifada", исполняет "Ska-p".
Используемые в песне аккорды можно найти в разделе Как брать аккорды. Аккорды для шестиструнной гитары. Другие песни можно найти на нашем сайте, воспользовавшись алфавитным указателем вверху страницы.


 
Ошибка в тексте? Выделите ошибку и нажмите Ctrl+Enter