SONG: Don't Dream It's Over
BAND: Sixpence None THe Richer

Standard Tuning: (EBGDAE)

Message: Sorry, I wasn't able to tab the solo for you. It's because 
         I don't have a listening material. And so, I hope for your kind
         consideration. But if you're kind enough to give me a CD, I'd 
         be glad to tab the solo for you!!




Chords used in Intro:

E----2----  ----2----
B----4----  ----4----
G----4----  ----3----
D----4----  ----4----
A----2----  ----2----
E----2----  ----2----
  
     B         BM7


Chords used in Stanza:

E----2----  ----2----  ----4----  ----2----
B----4----  ----4----  ----4----  ----2----
G----4----  ----3----  ----4----  ----3----
D----4----  ----4----  ----6----  ----4----
A----2----  ----2----  ----6----  ----4----
E----2----  ----2----  ----4----  ----2----
  
     B         BM7        G#m        F#


CHords used in Chorus:

E----0----  ----2----  ----2----  ----2----
B----0----  ----2----  ----4----  ----2----
G----1----  ----3----  ----4----  ----2----
D----2----  ----4----  ----4----  ----4----
A----2----  ----4----  ----2----  ----4----
E----0----  ----2----  ----2----  ----2----

     E         F#          B         G#m




Lyrics:

*use chords of stanza

There is freedom within, there is freedom without 
Try to catch the deluge in a paper cup 
There's a battle ahead, many battles are lost 
But you'll never reach the end of the road 
When you're traveling with me 

*use chords of chorus

Hey now, hey now 
Don't dream it's over 
Hey now, hey now 
When the world comes in 
They come, they come 
To build a wall between us 
We know they won't win 

*solo 1

*stanza chords

Now I'm towing my car, there's a hole in the roof 
My possessions are causing me suspicion but there's no proof 
In the paper today tales of war and of waste 
But you turn right over to the T.V. page 

Now I'm walking again to the beat of a drum 
And I'm counting the steps to the door of your heart 
Only shadows ahead barely clearing the roof 
Get to know the feeling of liberation and relief 

*Chords of Chorus

Hey now, hey now 
Don't dream it's over 
Hey now, hey now 
When the world comes in 
They come, they come 
To build a wall between us 
We know they won't win

*Solo 2
*back to Chorus (fade)



================================================================================

If you have any comments or corrections about the tab, please send it to
   [email protected]....alright? ;)


Текст, аккорды и табулатура для песни "Dont Dream Its Over", исполняет "Sixpence None The Richer".
Используемые в песне аккорды можно найти в разделе Как брать аккорды. Аккорды для шестиструнной гитары. Другие песни можно найти на нашем сайте, воспользовавшись алфавитным указателем вверху страницы.


 
Ошибка в тексте? Выделите ошибку и нажмите Ctrl+Enter