-----------------------------------------------------------------
| Circle of Error                                               |
| by: Sixpence None the Richer                                  |
| CD: This Beautiful Mess                                       |
| written by: Matt Slocum                                       |
| transcribed by: [email protected] (Josh Prins)                |
| copyright: (C) 1995 Le Tigre Sur Un Ballon Publishing (ASCAP) |
-----------------------------------------------------------------

BASS TAB

The numbers above the tabs are the beats (in 6/8 time)
When the note was on the tenth fret, I used the letter A.
There may me subtle differences between this and the actual song, 
     but I believe it is right for the most part.


Vamp 1 (after guitar intro): 

     1 2 3 4 5 6 1 2 3 4 5 6 1 2 3 4 5 6 1 2 3 4 5 6  
--------------------------------0--5-0---4--0-------------------
----------------------------------------------------------------
-----5-----5---------------0-3---------0------02-2-3------------
---------------0-1-----1----------------------------------------

repeat VAMP 1

Verse:

     1 2 3 4 5 6 1 2 3 4 5 6 1 2 3 4 5 6 1 2 3 4 5 6  
----------------------------------------------------------------
----------------------------------------------------------------
-----5-----5---------------0-3-----3---3-2-----2---0------------
---------------0-1-----1----------------------------------------

repeat VERSE 3x

Chorus:

     1 2 3 4 5 6 1 2 3 4 5 6 1 2 3 4 5 6 1 2 3 4 5 6  
--------------------------------0--5-0--------------------------
--------------------------------------------0--5-0--------------
---------------------------0-3---------3------------------------
-----5-----5---0-1-----1-----------------3---------3------------

repeat CHORUS

VAMP 1

Vamp 2:

     1 2 3 4 5 6 1 2 3 4 5 6 1 2 3 4 5 6 1 2 3 4 5 6  
-------------7------------------0--5-0--------------------------
-----------7---7------------------------------------------------
-----5-----------8-----8---0-3---------3-2-----2---3------------
----------------------------------------------------------------

VERSE (4x)

CHORUS (4x)

Bridge:

     1 2 3 4 5 6 1 2 3 4 5 6 1 2 3 4 5 6 1 2 3 4 5 6  
-----------------------------------0---7-5--4-------------------
-----------------------3-----------------------5----------------
--------------------3------0-3----------------------------------
-----1-----1--01-1---------------------------------0------------

     1 2 3 4 5 6 1 2 3 4 5 6 1 2 3 4 5 6 1 2 3 4 5 6  
---------------0------------------------------------------------
----------------------------------------------------------------
-------------3-------------0-3-----3-----3-----3----------------
-----1-----1-----1-----1----------------------------------------

     1 2 3 4 5 6 1 2 3 4 5 6 1 2 3 4 5 6 1 2 3 4 5 6  
----------------------------------------------------------------
----------------------------------------------------------------
-----2-----------2-----2----------------------------------------
-----------------------------5-----------5-----5---5------------

     1 2 3 4 5 6 1 2 3 4 5 6 1 2 3 4 5 6 1 2 3 4 5 6  
-----------------------------------------------A----------------
--------------------------------------------A----A--------------
-----------------------------------8-----8---------8------------
-----1-----1---1-1-----1---1-1--8----8-8------------------------

Vamp 3:

     1 2 3 4 5 6 1 2 3 4 5 6 1 2 3 4 5 6 1 2 3 4 5 6  
--------------------------------0--4-0--------------------------
----------------------------------------------------------------
-----5-----5---------------0-3---------3-232---2---3------------
---------------0-1-----1----------------------------------------

VAMP 2

CHORUS (8x)

Vamp 4:

     1 2 3 4 5 6 1 2 3 4 5 6 1 2 3 4 5 6 1 2 3 4 5 6  
-----------------------A--------0--5-0-----0---5----------------
--------------------A----A--------------------------------------
-----0-----0-----8---------0-3---------0-3-------3-2------------
---------------8------------------------------------------------

repeat VAMP 4 6x

Vamp 5 (fade):

     1 2 3 4 5 6 1 2 3 4 5 6 1 2 3 4 5 6 1 2 3 4 5 6  
--------------------------------0--5-0-----0---5----------------
----------------------------------------------------------------
-----0-----0---------------0-3---------0-3-------3-2------------
---------------0-1-----1----------------------------------------



Josh Prins
[email protected]


Текст, аккорды и табулатура для песни "Circle Of Error", исполняет "Sixpence None The Richer".
Используемые в песне аккорды можно найти в разделе Как брать аккорды. Аккорды для шестиструнной гитары. Другие песни можно найти на нашем сайте, воспользовавшись алфавитным указателем вверху страницы.


 
Ошибка в тексте? Выделите ошибку и нажмите Ctrl+Enter