Six Feet Under
Feasting on the Blood of the Insane

Tabbed by: KHMM Slayer
If you have any questions about this tab email me at:
[email protected]

standard tuning
* = Trill
=palm muting

Intro
|--------------------------------|
|--------------------------------|
|--------3---------------3-------|
|2-------1-------2-------3-------|
|2-------1-------2-------1-------|
|0---------------0---------------|
Intro Riff
|------------------------------------|
|------------------------------------|
|------------------------------------|
|2-----------------------------------|
|2---/7---6*7---2---3------2---1*2---|
|0----------------------1------------|
Intro Riff Ending
|--------------------|
|--------------------|
|------------4---3---|
|2---4---5---4---3---|
|2---4---5---2---1---|
|0---2---3-----------|
Riff 1
|--------------------------------------------|
|--------------------------------------------|
|--------------------------------------------|
|2-----------2-----------5-----------6---3---|
|2-----------2-----------5-----------6---3---|
|0---0-0-0-0-0---0-0-0-0-3---0-0-0-0-4---1---|
     . . . .     . . . .     . . . .
Riff 2
|--------------------------------------------|
|--------------------------------------------|
|------------3-------------------------------|
|2-----------3-----------5-----------6---3---|
|2-----------1-----------5-----------6---3---|
|0---0-0-0-0-----0-0-0-0-3---0-0-0-0-4---1---|
     . . . .     . . . .     . . . .
Fill
|--------------------------------|
|--------------------------------|
|--------------------------------|
|----7-------8-------5-------3---|
|----7-------8-------5-------3---|
|0-0-5---0-0-6---0-0-3---0-0-1---|
 .     . .     . .     . .
Riff 3
|------------------------------------------------------------|
|------------------------------------------------------------|
|------------------------------------------------------------|
|2---------5-----2-----3-----2---------5-----2-----3---------|
|2---------5-----2-----3-----2---------5-----2-----3---------|
|0-0-0-0-0-3-0-0-0-0-0-1-0-0-0-0-0-0-0-3-0-0-0-0-0-1-0-0-0-0-|
   . . . .   . .   . .   . .   . . . .   . .   . .   . . . .
Riff 3 (Continued)
|------------------------------|
|------------------------------|
|------------------------------|
|5-----2-----3---------3---5---|
|5-----2-----3---------3---3---|
|3-0-0-0-0-0-1-0-0-0-0-1---3---|
   . .   . .   . . . .
Riff 4
|--------------------------------|
|--------------------------------|
|--------------------------------|
|--------------------------------|
|----------------5-5-5-5-5-5-5-5-|
|3-3-3-3-3-3-3-3-----------------|
 . . . . . . . . . . . . . . .
Riff 4 (continued)
|--------------------------------|
|--------------------------------|
|--------------------------------|
|--------------------------------|
|----------------3-3-3-3-3-3-3-3-|
|2-2-2-2-2-2-2-2-----------------|
 . . . . . . . . . . . . . . .


Текст, аккорды и табулатура для песни "Feisting On The Blood Of The Insane", исполняет "Six Feet Under".
Используемые в песне аккорды можно найти в разделе Как брать аккорды. Аккорды для шестиструнной гитары. Другие песни можно найти на нашем сайте, воспользовавшись алфавитным указателем вверху страницы.


 
Ошибка в тексте? Выделите ошибку и нажмите Ctrl+Enter