Tabbed by: Nouwsh
Band: Simple Plan
Song: Perfect
Hotmail: [email protected]
Note: This tabbisnt pefect like the song but its almost there! If anyone
find something wrong with the tab just mail me please and let me know ;)

* = let it ringc
/ = slide
x = pm
4x = do it four times
3x = do it three times
2x = do it two times
1X = do it one time

etc...

Intro (akustic)
|------------------------------------------------------------|
|---------------------------7--------------------------------|
|---7-6-7------------7-6--9----------------------------------|
|---7-7-7--5-4-0-----7-7--7-----5-4-0------------------------|
|---5------5-5-5-----5----------5-5-5------------------------|
|----------3--------------------3----------------------------|

Bridge
guitar 1
|------------------------------------------------------------|
|------------------------------------------------------------|
|---7777777777777777-----------------------------------------|
|---7777777777777777---5555555555555555----------------------|
|---5555555555555555---5555555555555555----------------------|
|----------------------3333333333333333----------------------|
|------------------------------------------------------------|

|------------------------------------------------------------|
|------------------------------------------------------------|
|---7777777777777777-----------------------------------------|
|---7777777777777777---5555555555555555----------------------|
|---5555555555555555---5555555555555555----------------------|
|----------------------3333333333333333----------------------|

guitar 2
|------------------------------------------------------------|
|------------------------------------------------------------|
|--777-7/999-9/1212-12-11-12-11------------------------------|
|------------------------------------------------------------| 3X 
|--555-5/777-7/1010-10--9-10--9------------------------------|
|------------------------------------------------------------|

the last time its something like this
|------------------------------------------------------------|
|------------------------------------------------------------|
|--777-7/999-9/1212-12-14-12-11------------------------------|
|------------------------------------------------------------|
|--555-5/777-7/1010-10-12-10--9------------------------------|
|------------------------------------------------------------|
 
Verse ( hey dad look at me... )
|------------------------------------------------------------|
|---------------------------8-7------------------------------|
|----7-6-7------------7-6-7-----9---7-6-7--------------------|
|---7--------5------7---------------7-7-7--5-4-7-------------| 
|---5--------5------5---------------5------5-5-5-------------|
|------------3-----------------------------3-----------------|
             *

|------------------------------------------------------------|
|------------------------------------------------------------|
|---7-6-7-7-6-9----------------------------------------------|
|---7-7-7-5-5-5----------------------------------------------|
|---5-----5--------------------------------------------------|
|------------------------------------------------------------|


guitar 1 (and now i try hard to make it.. )
|------------------------------------------------------------|
|------------------------------------------------------------|
|--------7-------7--------------------7-------7--------------|
|----7-------7------55555555------7-------7------55555554----|
|--5---5---5---5----55555555----5---5---5---5----55555555----|
|-------------------33333333---------------------33333332----|

guitar 2
|------------------------------------------------------------|
|------------------------------------------------------------|
|--77777777----------777777777-------------------------------|
|--77777777-55555555-777777777-55555554----------------------|
|--55555555-55555555-555555555-55555555----------------------|
|-----------33333333-----------33333332----------------------|

chorus akustic (cause we lost it all...)
|------------------------------------------------------------|
|------------------------------------------------------------|
|--6-7-9-7-6--6-7-7-76---------------------------------------| 
|--7-7--------5-5-5-77---------------------------------------| 2X 
|--5----------5---5------------------------------------------|
|------------------------------------------------------------|

(PLAY THIS AGAIN WITH SOME ARRANGEMENTS YOU CAN FIGURE IT OUT YOURSELF)
Bridge
Verse
chorus

(nothing is gonna change...)
|------------------------------------------------------------|
|------------------------------------------------------------|
|-66666666-7777777-------------------5----------------------| 2X
|-66666666-7777777--555555555--------5----------------------|
|-44444444-5555555--555555555--0000--3-----------------------|
|-------------------333333333--0000--------------------------|
                               xxxx

|------------------------------------------------------------|
|------------------------------------------------------------|
|---777777777-666666666-44444444444444444--------------------|
|---777777777-666666666-44444444444444444--5-----------------|
|---555555555-444444444-22222222222222222--5-----------------|
|------------------------------------------3-----------------|

one more time verse

Bridge to the chorus
|--------------------|
|--------------------|
|--------------------|
|--777777------------|
|--777777------------|
|--555555------------|

chorus (cause we lost it all...)
|------------------------------------------------------------|
|------------------------------------------------------------|
|------------------------------------------------------------|
|--55555555--77777777--99999999------------------------------| 4X
|--55555555--77777777--99999999------------------------------|
|--33333333--55555555--77777777------------------------------|


Текст, аккорды и табулатура для песни "Perfect", исполняет "Simple Plan".
Используемые в песне аккорды можно найти в разделе Как брать аккорды. Аккорды для шестиструнной гитары. Другие песни можно найти на нашем сайте, воспользовавшись алфавитным указателем вверху страницы.


Слушать онлайн Perfect


Simple PlanPerfect на Яндекс.Музыке


 
Ошибка в тексте? Выделите ошибку и нажмите Ctrl+Enter