Author/Artist: Simple Plan
Title: One Day
Transcribed by: GuitarGirl
Email: [email protected]
 
[email protected]2-0----------
---------3----------------3---------------------3----------------3------------
------------------------------------------------------------------------------
----------------------------------------0---0-0-----0-------------------------
-0/5-5-5-----5--------0-0-----0-----0-2---2------------------0-0-----0-----0--
---------------3-3--3-----------3-3-------------------3-3--3-----------3-3----
intro and verse 
 
-----------2-0----------------------------------------0-3-0-------------------
-----------3------------------------------------------2-3-2-------------------
------------------------------------------------------2-0-2-------------------
-0-0--------------------------------0-2-2-2-2-2-2-2-2-2-0-2-------------------
-----------------0-0--0---------0-2---2-2-2-2-2-2-2-2-0-2-0-------------------
-----3-5-3-----3--------3-3-3-3-------0-0-0-0-0-0-0-0---3---------------------
still part of the verse 
 
------------------------------------------------------------------------------
------------------------------------------------------------------------------
-7-7-------------7-7--------------7---7-7-7-7---------------------------------
-7-7-5-5-7-7-5-7-7-7-5-5-7-7-5555-7---7-7-7-7-5-5-5-5-7-7-7-7-7-7-7-7-9-9-9---
-5-5-5-5-7-7-5-7-5-5-5-5-7-7-5555-5---5-5-5-5-5-5-5-5-7-7-7-7-7-7-7-7-9-9-9---
-----3-3-5-5-3-5-----3-3-5-5-3333-------------3-3-3-3-5-5-5-5-5-5-5-5-7-7-7---
 
------------------------------------------------------------------------------
------------------------------------------------------------------------------
--------------------7---------------------------------------------------------
-9-7-7-7-7-5-5--5-7-7---------------------------------------------------------
-9-7-7-7-7-5-5--5-7-5---------------------------------------------------------
-7-5-5-5-5-3-3--3-5-----------------------------------------------------------
This is the chorus. After this you play the verse again...
Note : after you play the first two bars again replace the third 
bar with the one below 
------------------------------------------------------------------------------
------------------------------------------------------------------------------
------------------------------------------------------------------------------
-9-9-9-9--7-7-7-7----2-2----4-4-5-5-5-5---------------------------------------
-9-9-9-9--7-7-7-7----2-2----4-4-5-5-5-5---------------------------------------
-7-7-7-7--5-5-5-5----0-0----2-2-3-3-3-3---------------------------------------
«wont be there to say I'm not around to, One day »
 
And now into the bridge. 
------------------------------------------------------------ 
------------------------------------------------------------
---------------------7-7-7-7--------------------------------
-9-9-9-9-7-7-5-5-5-5-7-7-7-7-7-7-7-7------------------------ 2 times
-9-9-9-9-7-7-5-5-5-5-5-5-5-5-7-7-7-7------------------------
-7-7-7-7-5-5-3-3-3-3---------5-5-5-5------------------------
« Go away, don't look at me... » this part is played by Seb.
Now what I am about to tab out is a little part that Jeff plays 
which is in the bridge...you'll know what I am talking about once 
you play it
------------------------------------------------------------ 
------------------------------------------------------------
---------------------7-7-9-9-11-11-12-12-14-14-14--14-------
-9-9-9-9-7-7-5-5-5-5---------------------------------------- 2 times
-9-9-9-9-7-7-5-5-5-5-5-5-7-7-9--9--10-10-12-12-12--12-------
-7-7-7-7-5-5-3-3-3-3----------------------------------------
And that's pretty much it...It's not a really hard song but it's 
sorta tough to get the hang of it at the beginning. Good Luck!


Текст, аккорды и табулатура для песни "One Day", исполняет "Simple Plan".
Используемые в песне аккорды можно найти в разделе Как брать аккорды. Аккорды для шестиструнной гитары. Другие песни можно найти на нашем сайте, воспользовавшись алфавитным указателем вверху страницы.


Слушать онлайн One Day


Simple PlanOne Day на Яндекс.Музыке


 
Ошибка в тексте? Выделите ошибку и нажмите Ctrl+Enter