-------------------------------------------------------------------------------
			     MY ALIEN - simple plan                            
-------------------------------------------------------------------------------

Tabbed by:jimmy (jimmybear)
Email:

Tuning:EADGBE
     intro (repeat as needed)
e|---------------------------------------------------------------------------|
B|---------------------------------------------------------------------------|
G|---------------------------------------------------------------------------|
D|----7-6-7------------------------------------------------------------------|
A|-----7-7-7-----------------------------------------------------------------|
E|---5-----------------------------------------------------------------------|
  verse 
e|---------------------------------------------------------------------------|
B|---------------2(4x)--4(4x)------------------------------------------------|
G|-1(7x--4(4x)----------------1(7x)--3/5/3--3/5/3----------------------------|
D|---------------------------------------------------------------------------|
A|---------------------------------------------------------------------------|
E|---------------------------------------------------------------------------|
   (repeat intro)
  verse 2 ( know our faces)
e|---------------------------------------------------------------------------|
B|---------------------------------------------------------------------------|
G|--88--66-------------------------------------------------------------------|
D|--88--66-------------------------------------------------------------------|
A|--66--44-------------------------------------------------------------------|
E|---------------------------------------------------------------------------|
    chorus  ( you can find the strum pattern its really basic)
e|---------------------------------------------------------------------------|
B|---------------------------------------------------------------------------|
G|--2--------6---------------------------------------------------------------|
D|--2--2--3--6---------------------------------------------------------------|
A|--0--2--3--4---------------------------------------------------------------|
E|-----0--1------------------------------------------------------------------|
     (return to verse 1)
     (then intro)
     guitar 2   (some day be my own)
e|---------------------------------------------------------------------------|
B|---------------------------------------------------------------------------|
G|--xx6--xx4----xx6--xx8-----------------------------------------------------|
D|--xx6--xx4----xx6--xx8-----------------------------------------------------|
A|--xx4--xx2----xx4--xx6-----------------------------------------------------|
E|---------------------------------------------------------------------------|
   (return to chorus)
    then to interlude
e|---------------------------------------------------------------------------|
B|---------------------------------------------------------------------------|
G|----------99-----(listen to the song for how many times u play this)-------|
D|----779977-----------------------------------------------------------------|
A|--00-----------------------------------------------------------------------|
E|---------------------------------------------------------------------------|
 (then finally back to the chorus)
 this is an awesome song but i dont have the solo figured out it sounds right
to me but if u dont like it change stuff around for yourself  --jimmy

| /  slide up
|   slide down
| h  hammer-on
| p  pull-off
| ~  vibrato
| +  harmonic
| x  Mute note
===============================================================================


Текст, аккорды и табулатура для песни "My Alien", исполняет "Simple Plan".
Используемые в песне аккорды можно найти в разделе Как брать аккорды. Аккорды для шестиструнной гитары. Другие песни можно найти на нашем сайте, воспользовавшись алфавитным указателем вверху страницы.


Слушать онлайн My Alien


Simple PlanMy Alien на Яндекс.Музыке


 
Ошибка в тексте? Выделите ошибку и нажмите Ctrl+Enter