Tuning: Standard

INTRO:
e---------------|---------------|---------------|---------------|
B---------------|---------------|---------------|---------------|
G---------------|---------------|-1-1-1-1-1-1-1-|-1-1-1-1-1-1-1-|
D-8-8-8-9-9-9-9-|-8-8-8-9-9-9-9-|-1-1-1-2-2-2-2-|-1-1-1-2-2-2-2-|
A-9-9-9-9-9-9-9-|-9-9-9-9-9-9-9-|-2-2-2-2-2-2-2-|-2-2-2-2-2-2-2-|
E-7-7-7-7-7-7-7-|-7-7-7-7-7-7-7-|---------------|---------------|

e---------------|---------------|---------------|---------------|
B---------------|---------------|---------------|---------------|
G---------------|---------------|-1-1-1-1-1-1-1-|-1-1-1-1-1-1-1-|
D-8-8-8-9-9-9-9-|-8-8-8-9-9-9-9-|-1-1-1-2-2-2-2-|-1-1-1-2-2-2-2-|
A-9-9-9-9-9-9-9-|-9-9-9-9-9-9-9-|-2-2-2-2-2-2-2-|-2-2-2-2-2-2-2-|
E-7-7-7-7-7-7-7-|-7-7-7-7-7-7-7-|---------------|---------------|

Verse:
*continue intro riff*
B
Now you're gone
                 E
I wonder why you left me here
                 B                              E
I think about it on and on and on and on and on again
B                          E
I know you're never coming back
                        B
But I hope that you can hear me
               E
I'm waiting to hear from you

Until I do

Pre-chorus riff(2X):
e-----------------|-----------------|-----------------|-----------------|
B-----------------|-----------------|-----------------|-----------------|
G-----------------|-----------------|-1-1-1-1-1-1-1-1-|-1-1-1-1-1-1-1-1-|
D-6-6-6-6-6-6-6-6-|-4-4-4-4-4-4-4-4-|-2-2-2-2-2-2-2-2-|-2-2-2-2-2-2-2-2-|
A-6-6-6-6-6-6-6-6-|-4-4-4-4-4-4-4-4-|-2-2-2-2-2-2-2-2-|-2-2-2-2-2-2-2-2-|
E-4-4-4-4-4-4-4-4-|-2-2-2-2-2-2-2-2-|-----------------|-----------------|

Pre-chorus:
       G#m
You're gone away
    F#m
I'm left alone
  E
A part of me is gone
             G#m
And I'm not moving on
   F#m
So wait for me
  E
I know the day will come

Chorus riff (2X):
e-------------------------|-----------------|
B-------------------------|-----------------|
G-------------------------|-1-1-1-1---------|
D-9-9-9-9-9-9-9-9-9-9-9-9-|-2-2-2-2-4-4-4-4-|
A-9-9-9-9-9-9-9-9-9-9-9-9-|-2-2-2-2-4-4-4-4-|
E-7-7-7-7-7-7-7-7-7-7-7-7-|---------2-2-2-2-|

CHORUS:
              B
I'll meet you there
                     E           F#m
No matter where life takes me to
              B
I'll meet you there
              E             F#m
And even if I need you here
              B
I'll meet you there

VERSE: *PLAY INTRO RIFF AGAIN, SAME AS LAST VERSE*
                    E
I wish I could have told you
                     B
The things I kept inside
                     E
But now I guess it's just to late
B                           E
So many things remind me of you
                    B
I hope that you can hear me

I miss you
     E
This is goodbye

One last time

*PRE-CHORUS*
*CHORUS 2X*

BRIDGE/SOLO RIFF:
e-------------------------| 
B-------------------------|  
G-1-1---------------------|    PLAY
D-2-2-6-6-9-9-4-4-X-X-X-X-|   / 8 TIMES
A-2-2-6-6-9-9-4-4-X-X-X-X-|  /
E-----4-4-7-7-2-2-X-X-X-X-| /


F#m         B                  E
And where I go you'll be there with me
F#m     B                    E
Forever you'll be right here with me

*PLAY BRIDGE/SOLO RIFF ONCE*
*CHORUS*


Текст, аккорды и табулатура для песни "Meet You There", исполняет "Simple Plan".
Используемые в песне аккорды можно найти в разделе Как брать аккорды. Аккорды для шестиструнной гитары. Другие песни можно найти на нашем сайте, воспользовавшись алфавитным указателем вверху страницы.


Слушать онлайн Meet You There


Simple PlanMeet You There на Яндекс.Музыке


 
Ошибка в тексте? Выделите ошибку и нажмите Ctrl+Enter