Intro:
-------------------------
----3-----3-----3-----3--
--------2-----2-----2----   3x
--0----------------------
------------0------------
------3-----------3------
then:
---------------------------------------------------
--------3-------3-------3-2-------0-------0--------
------2-------2-------2---------0-------0-------2--   1x
----0-------0-------2---------2-------0-------2----
------------------0-------------------------0------
--2-------3-----------------0-------3--------------

chorus:
----------------------------------------------------------- 
-----------------------------------------------------------  
--7-7-7-----------------------7-7-7------------------------   
--7-7-7-5-5-5-5-7-7-7-7-7-7-7-7-7-7-5-5-5-5-7-7-7-5-5-5-5--   
--5-5-5-5-5-5-5-7-7-7-7-7-7-7-5-5-5-5-5-5-5-7-7-7-5-5-5-5--    
--------3-3-3-3-5-5-5-5-5-5-5-------3-3-3-3-5-5-5-3-3-3-3--   
                                                              1x  
-----------------------------------------------------------    
-----------------------------------------------------------    
----------------7-7-7--------------------------------------   
--2-2-2-5-5-5-5-7-7-7-7-7-7-7-2-2-2-2-5-5-5-5-7-7-7-7-7----   
--2-2-2-5-5-5-5-5-5-5-7-7-7-7-2-2-2-2-5-5-5-5-7-7-7-7-7----   
--0-0-0-3-3-3-3-------5-5-5-5-0-0-0-0-3-3-3-3-5-5-5-5-5----

verse: guitar 1 plays the intro
       guitar 2 plays this palmmuted:
------------------------------ 
------------------------------  
--7-7-7-----------------------   3x   
--7-7-7-5-5-5-5-7-7-7-5-5-5-5-   
--5-5-5-5-5-5-5-7-7-7-5-5-5-5-    
--------3-3-3-3-5-5-5-3-3-3-3-
then:
---------------------------------------------------------    
---------------------------------------------------------    
---------------------------------------------------------   
--2-2-2-5-5-5-5-7-7-7-7-7-7-7-2-2-2-2-5-5-5-5-7-7-7-7-7--   1x  
--2-2-2-5-5-5-5-7-7-7-7-7-7-7-2-2-2-2-5-5-5-5-7-7-7-7-7--   
--0-0-0-3-3-3-3-5-5-5-5-5-5-5-0-0-0-0-3-3-3-3-5-5-5-5-5--

chorus: play the same as the first chorus and add this:
---------------------------------------------------------
---------------------------------------------------------
--------------------------7-7-7-------------7--7---------
--5-5-5-5-5-5-5-7-7-7-7-7-7-7-7-5-5-5-5-5-7-7--7-7-------
--5-5-5-5-5-5-5-7-7-7-7-7-5-5-5-5-5-5-5-5-7-5--5-7-------
--3-3-3-3-3-3-3-5-5-5-5-5-------3-3-3-3-3-5------5-------
                                                            1x
-----------------------------------------------
-----------------------------------------------
------------------------7-7-7------------------
--5-5-5-5-5-5-5-7-7-7-7-7-7-7-2-2-2-2-2-2-2-7--
--5-5-5-5-5-5-5-7-7-7-7-5-5-5-2-2-2-2-2-2-2-7--
--3-3-3-3-3-3-3-5-5-5-5-------0-0-0-0-0-0-0-5--

bridge:
---------------------------
----3-----3-----3-------3--
--------2-----2---2---2----   5x  
--0------------------------
---------------------------
------3-----0-------3------

chorus:
----------------------------------------------------------- 
-----------------------------------------------------------  
--7-7-7-----------------------7-7-7------------------------   
--7-7-7-5-5-5-5-7-7-7-7-7-7-7-7-7-7-5-5-5-5-7-7-7-5-5-5-5--   
--5-5-5-5-5-5-5-7-7-7-7-7-7-7-5-5-5-5-5-5-5-7-7-7-5-5-5-5--    
--------3-3-3-3-5-5-5-5-5-5-5-------3-3-3-3-5-5-5-3-3-3-3-- 
                                                              2x
-----------------------------------------------------------
-----------------------------------------------------------
----------------7-7-7-----------------------7-7-7----------
--2-2-2-5-5-5-5-7-7-7-7-7-7-7-2-2-2-5-5-5-5-7-7-7-7-7-7-7--
--2-2-2-5-5-5-5-5-5-5-7-7-7-7-2-2-2-5-5-5-5-5-5-5-7-7-7-7--
--0-0-0-3-3-3-3-------5-5-5-5-0-0-0-3-3-3-3-------5-5-5-5--
add this the second time:
-----------------------------------------------------------
-----------------------------------------------------------
----------------7-7-7--------------------------------------
--2-2-2-5-5-5-5-7-7-7-7-7-7-7-2-2-2-5-5-5-5-7-7-7-7-7-7-7--
--2-2-2-5-5-5-5-5-5-5-7-7-7-7-2-2-2-5-5-5-5-7-7-7-7-7-7-7--
--0-0-0-3-3-3-3-------5-5-5-5-0-0-0-3-3-3-3-5-5-5-5-5-5-5--

-----------------------------------------------------------
-----------------------------------------------------------
------------------------------7-7-7-7-7-7-7----------------
--5-5-5-5-5-5-5-7-7-7-7-7-7-7-7-7-7-7-7-7-7-9-9-9-9-9-9-9--
--5-5-5-5-5-5-5-7-7-7-7-7-7-7-5-5-5-5-5-5-5-9-9-9-9-9-9-9--
--3-3-3-3-3-3-3-5-5-5-5-5-5-5---------------7-7-7-7-7-7-7--

-------------------------------------
-------------------------------------
------------------------------7------
--5-5-5-5-5-5-5-7-7-7-7-7-7-7-7-7-5--
--5-5-5-5-5-5-5-7-7-7-7-7-7-7-5-7-5--
--3-3-3-3-3-3-3-5-5-5-5-5-5-5---5-3--

That's the whole song. This is the first song I ever tabbed so I hope
I helped ya out. If you have any corrections or comments feel free to mail
me at [email protected] Have fun!


Текст, аккорды и табулатура для песни "Im Just A Kid", исполняет "Simple Plan".
Используемые в песне аккорды можно найти в разделе Как брать аккорды. Аккорды для шестиструнной гитары. Другие песни можно найти на нашем сайте, воспользовавшись алфавитным указателем вверху страницы.


 
Ошибка в тексте? Выделите ошибку и нажмите Ctrl+Enter