Song : I'm just a kid
Band : Simple Plan
Tab by Eaiddhi 
contact : [email protected])
(standard tuning)

This song is really cool.  This tab is 99% correct tab. ENJOY............

Intro
|------------------------------------------------|
|----3-------3----3-------------3----------------|
|---------2-----------2------2-------------------|
|--0---------------------------------repeat x4---|
|----------------0-------------------------------|
|-------3-----------------3----------------------|


|-------------------------------------------|
|--------3----3----3-------3---2------------|
|-----2----------2-------2--------2---------|
|---------------------------------------2---|
|-------------------------------------------|
|---2------3----------0---------------------|


|-----------------------------------|
|----------0-------0----------------|
|-------0-------0----0---------2----|
|----2-----------------------2------|
|-------------------------0---------|
|--0---------3----------------------|


|-----------------------------------------------------|
|-----------------------------------------------------|
|-777-----------------------777-----------------------|
|-777---5-555-----7777-777--777--5-555---777---5-555--|
|-555---5-555-----7777-777--555--5-555---777---5-555--|
|-----0-3-333-0---5555-555-----0-3-333-0-555-0-3-333--|


|-----------------------------------------------|
|-----------------------------------------------|
|---------------7-7-----------------------------|
|-222---5-555---7-7--7-7--222----5-555---77777--|
|-222---5-555---5-5--7-7--222----5-555---77777--|
|-000-0-3-333-0------5-5--000-0--3-333-0-55555--|

Verse 1
(play the INTRO again)
Chorus
Verse 2
Chorus

|------------------------------------------------------|
|------------------------------------------------------|
|-777-----------------------777------------------------|
|-777----5-555---7777--777--777---5-555---777---5-555--|
|-555----5-555---7777--777--555---5-555---777---5-555--|
|------0-3-333-0-5555--555------0-3-333-0-555-0-3-333--|

|--------------------------------------------------|
|--------------------------------------------------|
|---------------7-7--------------------------------|
|-222---5-555---7-7--7-7--222---5-555----77777777--|
|-222---5-555---5-5--7-7--222---5-555----77777777--|
|-000-0-3-333-0------5-5--000-0-3-333-0--55555555--|


|----------------------------------------|
|----------------------------------------|
|------------------------------------7---|
|-5555555--7-7777777--5555557-5-5555-7---|
|-5555555--7-7777777--5555557-5-5555-5---|
|-3333333--5-5555555--2222225-3-3333-----|

|-------------------------------------|
|-----------------7--777--------------|
|-5555555--7--77--7--777--22222222-7--|
|-5555555--7--77--5--555--22222222-7--|
|-3333333--5--55----------00000000-5--|


|------------------------------------------------|
|----3-------3----3-------------3----------------|
|---------2-----------2------2-------------------|
|--0---------------------------------repeat x4---|
|----------------0-------------------------------|
|-------3-----------------3----------------------|


|------------------------------------------------------|
|------------------------------------------------------|
|-777-------------------------------777----------------|
|-777----5-555---7777--777--777---5-555---777---5-555--|
|-555----5-555---7777--777--555---5-555---777---5-555--|
|------0-3-333-0-5555--555------0-3-333-0-555-0-3-333--|


|-------------------------------------------------|
|-------------------------------------------------|
|--------------7-7---------------------7-7--------|
|-222---5-555--7-7--7-7--222---5-555---7-7--7-7---|
|-222---5-555--5-5--7-7--222---5-555---5-5--7-7---|
|-000-0-3-333-0-----5-5--000-0-3-333-0------5-5---|


|-------------------------------------------------------|
|-------------------------------------------------------|
|-777--------------------------------777----------------|
|-777-----5-555---7777--777--777---5-555---777---5-555--|
|-555-----5-555---7777--777--555---5-555---777---5-555--|
|------0--3-333-0-5555--555------0-3-333-0-555-0-3-333--|


|-------------------------------------------------|
|-------------------------------------------------|
|--------------7-7---------------------7-7--------|
|-222---5-555--7-7--7-7--222---5-555---7-7--7-7---|
|-222---5-555--5-5--7-7--222---5-555---5-5--7-7---|
|-000-0-3-333-0-----5-5--000-0-3-333-0------5-5---|


|--------------------------------------------------|
|--------------------------------------------------|
|---------------7-7--------------------------------|
|-222---5-555---7-7--7-7--222---5-555----77777777--|
|-222---5-555---5-5--7-7--222---5-555----77777777--|
|-000-0-3-333-0------5-5--000-0-3-333-0--55555555--|


|---------------------------------------------|
|---------------------------------------------|
|-----------7----4---------------7------------|
|-5----7----7-x8-4-x8-5----7-----7---7---5----|
|-5-x8-7-x8-5----2----5-x8-7-x8--5---7---5----|
|-3----5--------------3----5---------5---3----|


Fine.


Текст, аккорды и табулатура для песни "Im Just A Kid", исполняет "Simple Plan".
Используемые в песне аккорды можно найти в разделе Как брать аккорды. Аккорды для шестиструнной гитары. Другие песни можно найти на нашем сайте, воспользовавшись алфавитным указателем вверху страницы.


 
Ошибка в тексте? Выделите ошибку и нажмите Ctrl+Enter