Simple Plan - I'm Just A Kid

Standard tuning - capo on 1st fret:


intro & verses:
e--------------------------------------------------------|
B-------1------1-----1------1-----1------1-----1------1--|
G------------0------------0------------0------------0----|
D--------------------------------------------------------|
A----3-------------------------3-------------------------|
E----------1------3-----1------------1------3-----1------|


e---------------------------------------------------------------|
B-------1------1-----1------1-----1--------1-------1-------1-0--|
G------------0------------0--------------0-------0-------0------|
D--------------------------------------2-------3-------0--------|
A----3-------------------------3--------------------------------|
E----------1------3-----1------------0-------1-------3----------|


e------------------------------|
B------------0-------1------0--|
G----------0-------0------0----|
D--4-0---2-------3------0------|
A------------------------------|
E------0-------1------3--------|


chorus:
e--------------------------------|
B----1----------1-----------0----|
G----0----------2-----------0----|
D----2----------3-----------0----|
A----3----------3-----------2----|
E---------------1-----------3----|

    I'm just a kid, and my life is a nightmare

e--------------------------------|
B----1----------1-----------0----|
G----0----------2-----------0----|
D----2----------3-----------0----|
A----3----------3-----------2----|
E---------------1-----------3----|

    I'm just a kid, and I know that it's not fair

e----------------------------------------------------------------------------|
B----1------------------------1-------------0-------1-------------------0----|
G----2------------------------0-------------0-------2-------------------0----|
D----3------------------------2-------------0-------3-------------------0----|
A----3------------------------3-------------2-------3-------------------2----|
E----1--------------------------------------3-------1-------------------3----|

    Nobody cares, cause I'm alone and the world is having more fun than me


Текст, аккорды и табулатура для песни "Im Just A Kid", исполняет "Simple Plan".
Используемые в песне аккорды можно найти в разделе Как брать аккорды. Аккорды для шестиструнной гитары. Другие песни можно найти на нашем сайте, воспользовавшись алфавитным указателем вверху страницы.


 
Ошибка в тексте? Выделите ошибку и нажмите Ctrl+Enter