Simple plan
I'd do anything
tabbed by: headless_duck77


This song is dropped D: (low to high) D,A,D,G,B,E

Intro:
E:----------------------------
B:----------------------------
G:----------------------------
D:---3-6---5-8---6-6-6-6-6-6-6
A:-4-----6-------6-6-6-6-6-6-6  x2
D:---------------6-6-6-6-6-6-6
                |_____________|
                  palm mute

E:--------------
B:--------------
G:--------------
D:---3-6---5-8-- x1
A:-4-----6------
D:--------------

Verse
E:---------------------------------------------
B:---------------------------------------------
G:---------------------------------------------
D:---6-5h-6----6-5h-6---3-6-5h-6----3-6----5-8- x4
A:--------------------------------4------6-----
D:-6---------5---------------------------------


Pre Chorus
E:--------------------------------------
B:--------------------------------------
G:--------------------------------------
D:---6-5h-6---6-5h-6---6-5h-6---5-5-6-8-  x 1
A:----------3--------4--------6---------
D:-8------------------------------------


Chorus
E:--------------------------------------------
B:--------------------------------------------  ________     
G:-6-6----------------------------------------          
D:-6-6--6-6-6-6-6-6-6-1-1-1-1-1-1-3-3-3-3-3-3-           
A:-4-4--6-6-6-6-6-6-6-1-1-1-1-1-1-3-3-3-3-3-3-            
D:------6-6-6-6-6-6-6-1-1-1-1-1-1-3-3-3-3-3-3-             
                                                           | x2
E:-----------------------------------------------------    /
B:-----------------------------------------------------   /
G:-6-6-6-6-6-6-6--------------------------------------- _/
D:-6-6-6-6-6-6-6-6-6-6-6-6-6-6-1-1-1-1-1-1-3-3-3-3-3-3- 
A:-4-4-4-4-4-4-4-6-6-6-6-6-6-6-1-1-1-1-1-1-3-3-3-3-3-3-
D:---------------6-6-6-6-6-6-6-1-1-1-1-1-1-3-3-3-3-3-3-

E:-----------------
B:-----------------
G:-6---------------
D:-6-----3-6----5-8 x1
A:-4---4------6----
D:-----------------

Verse
E:---------------------------------------------
B:---------------------------------------------
G:---------------------------------------------
D:---6-5h-6----6-5h-6---3-6-5h-6----3-6----5-8- x4
A:--------------------------------4------6-----
D:-6---------5---------------------------------

Pre Chorus
E:--------------------------------------
B:--------------------------------------
G:--------------------------------------
D:---6-5h-6---6-5h-6---6-5h-6---6-6-5-3-  x 1
A:----------3--------4--------6---------
D:-8------------------------------------

Chorus
E:--------------------------------------------
B:--------------------------------------------  ________     
G:-6-6----------------------------------------          
D:-6-6--6-6-6-6-6-6-6-1-1-1-1-1-1-3-3-3-3-3-3-           
A:-4-4--6-6-6-6-6-6-6-1-1-1-1-1-1-3-3-3-3-3-3-            
D:------6-6-6-6-6-6-6-1-1-1-1-1-1-3-3-3-3-3-3-             
                                                           | x2
E:-----------------------------------------------------    /
B:-----------------------------------------------------   /
G:-6-6-6-6-6-6-6--------------------------------------- _/
D:-6-6-6-6-6-6-6-6-6-6-6-6-6-6-1-1-1-1-1-1-3-3-3-3-3-3- 
A:-4-4-4-4-4-4-4-6-6-6-6-6-6-6-1-1-1-1-1-1-3-3-3-3-3-3-
D:---------------6-6-6-6-6-6-6-1-1-1-1-1-1-3-3-3-3-3-3-

E:--------
B:--------
G:-6------
D:-6------
A:-4------
D:--------

Bridge:
E:---------------------------------------------
B:---------------------------------------------  
G:-----------------------------------------5---  
D:-6-5-6----5-6-5-6-5-3--6-5-6----5-6-5-6-8---- x1
A:---------------------------------------------
D:-------6---------------------6---------------

E:-------------------------------
B:-------------------------------
G:------------------------------- x1
D:-6-5-6----5-6-5-6-5-3--6-5-6---
A:-------------------------------
D:------6---------------------6--

E:--------------------------
B:--------------------------
G:--------------------------
D:-1--1-1-1--1-1-1--1-1-1-1- x1
A:-1--1-1-1--1-1-1--1-1-1-1-
D:-1--1-1-1--1-1-1--1-1-1-1-

Chorus
E:--------------------------------------------
B:--------------------------------------------     
G:-6-6----------------------------------------          
D:-6-6--6-6-6-6-6-6-6-1-1-1-1-1-1-3-3-3-3-3-3-   x1        
A:-4-4--6-6-6-6-6-6-6-1-1-1-1-1-1-3-3-3-3-3-3-            
D:------6-6-6-6-6-6-6-1-1-1-1-1-1-3-3-3-3-3-3-             
                                                           
E:-----------------------------------------------------    
B:-----------------------------------------------------   
G:-6-6-6-6-6-6-6--------------------------------------- x7
D:-6-6-6-6-6-6-6-6-6-6-6-6-6-6-1-1-1-1-1-1-3-3-3-3-3-3- 
A:-4-4-4-4-4-4-4-6-6-6-6-6-6-6-1-1-1-1-1-1-3-3-3-3-3-3-
D:---------------6-6-6-6-6-6-6-1-1-1-1-1-1-3-3-3-3-3-3-

Outro: 
E:--------------------
B:--------------------
G:-6------------------
D:-6----3-6---5--8--6- x1
A:-4--4-----6-------6-
D:------------------6-



Текст, аккорды и табулатура для песни "Id Do Anything", исполняет "Simple Plan".
Используемые в песне аккорды можно найти в разделе Как брать аккорды. Аккорды для шестиструнной гитары. Другие песни можно найти на нашем сайте, воспользовавшись алфавитным указателем вверху страницы.


 
Ошибка в тексте? Выделите ошибку и нажмите Ctrl+Enter