Tabbed by Geff S. ©
This is the first i’d do anything tab and i spend a lot of time on it so please dont copy. 
Or if you do, put my name on it. Thanks.

Any questions or corrections: [email protected]

  Intro
E----------------------------------------------------------------||
B----------------------------------------------------------------||
G----------------------------------------------------------------||
D-----5/6-----6/8—-6--66666--------------------------------------|| x 3
A--4-------6-------6--66666--------------------------------------||
E------------------4--44444--------------------------------------||
                     {muted}
  Riff
E----------------------------------------------------------------||
B----------------------------------------------------------------||
G----------------------------------------------------------------||
D—-6--6/5-6----6/5-6---3--6/5-6----5/6---6/8---------------------|| x 4
A--6---------5-------------------4-----6-------------------------||
E--4---------3---------------------------------------------------||
  
  Pre-Chorus
E----------------------------------------------------------------||
B----------------------------------------------------------------||
G---------------------------------------------66-----------------||
D------------55555555---66666666---88888888---66-----------------|| x 1
A-66666666---33333333---44444444---66666666---44-----------------||
E-44444444-------------------------------------------------------||

  Chorus
E----------------------------------------------------------------||
B----------------------------------------------------------------||
G-----------------------------------6-66-666---------------------||
D--6-66-666---5-55-555---3-33-333---6-66-666---------------------|| x 4
A--6-66-666---5-55-555---3-33-333---4-44-444---------------------||
E--4-44-444---3-33-333---1-11-111--------------------------------||

Riff  x 4

Pre-Chorus  x 2

Chorus x 4

Chorus x 4


Текст, аккорды и табулатура для песни "Id Do Anything", исполняет "Simple Plan".
Используемые в песне аккорды можно найти в разделе Как брать аккорды. Аккорды для шестиструнной гитары. Другие песни можно найти на нашем сайте, воспользовавшись алфавитным указателем вверху страницы.


 
Ошибка в тексте? Выделите ошибку и нажмите Ctrl+Enter